Jump to content
🪐CHECK OUT THE LATEST NEWS AND RUMOURS ON COLDPLAY'S UPCOMING ALBUM🪐

Recommended Posts

Scientist man, the X means that that string isnt played during that chord. Either mute it by putting a spare finger on it so that it won't vibrate, or just try not to hit it.

 

Oh, and what does that b mean beside the 11 on the very first chord for scientist electric?

 

Finally, I think you need to tune the high e down to a D for your revised Green Eyes.

Link to post
Share on other sites
  • Replies 773
  • Created
  • Last Reply

Top Posters In This Topic

Scientist man, the X means that that string isnt played during that chord. Either mute it by putting a spare finger on it so that it won't vibrate, or just try not to hit it.

 

Oh, and what does that b mean beside the 11 on the very first chord for scientist electric?

 

Finally, I think you need to tune the high e down to a D for your revised Green Eyes.

 

It is kinda funny. The other day I just found out what the X means. But Thank you anyways.

 

I have found a much better tabs for the scientist and clocks that sound great.

Link to post
Share on other sites
  • 2 months later...
  • 1 month later...

Alright, so I, like others have noticed that with Coldplay you have to use your thumb a lot.

 

Does anyone have any advice on how to do that? I just cannot get my fretting hand situated to where I can play most of these chords with adding the thumb. My thumb like isn't flexible enough.

Link to post
Share on other sites
Alright, so I, like others have noticed that with Coldplay you have to use your thumb a lot.

 

Does anyone have any advice on how to do that? I just cannot get my fretting hand situated to where I can play most of these chords with adding the thumb. My thumb like isn't flexible enough.

 

I had the same problem. What I would do is stand up and play. much easyer. Well it worked for me. Hope it helps.;)

Link to post
Share on other sites
  • 3 weeks later...

hi friends i have a good sheet music arshive

i have TURKISH-GREEK and thousands of FOREIGN (ENGLISH) song sheets and tabs.

 

if anyone need them just e mail me

 

please write who r u on ur e mail (write that u took my mail from this site) and explain me what u look for

 

my e mail and msn:

 

[email protected]

 

these weeks i m not online in msn because of an MSN EROR!

i take 80072efd eror. if anyone can solve it pls help me:))

 

waiting

i m open to share my sheets and tabss

 

(they r usually PROGUITAR TABS AND SHEET MUSICS) i dont like tacs like on this topic. i dont like play with them. i like notes (sheet music)

;)

Link to post
Share on other sites
in fix you, Jonny tunes his guitar to EADGBD# and goes

 

---0---0---0---0---0---0---0---0---0---0---0---0---0---0---0-------

---6---6---6---6--11--11--11-11--11--6---6---6---5---5---5-------

-------------------------------------------------------------------------

-------------------------------------------------------------------------

-------------------------------------------------------------------------

-------------------------------------------------------------------------

 

This may've already been posted but what Jonny plays is this...

 

---0---0---0---0---0---0---0---0---0---0---0---0---0---0---0-------

---4---4---4---4--11--11--11-11--11--4---4---4---3---3---3-------

-------------------------------------------------------------------------

-------------------------------------------------------------------------

-------------------------------------------------------------------------

-------------------------------------------------------------------------

 

...with emphasis on the B string.

Link to post
Share on other sites
Does anyone know the tads for Proof?

 

I think it's this...

 

Intro and Outro

E

C#m7 (9 11 11 9 0 0)

 

Verse x 4

E

C#m7

4 6 6 4 0 0

C#m7

 

Chorus

Bsus4 (799800)

C#m7

4 6 6 4 0 0

Cmaj7

Bsus4

C#m7

4 6 6 4 0 0

Bsus4

Link to post
Share on other sites
  • 2 weeks later...
SEE YOU SOON

 

Tuning: EGDDBD

 

Capo: Second

 

I've seen a nearly right tab on Ultimate Guitar but really its shit ;)

 

I'm going to put the chords first, then put them in a tab form to show the rythm.

 

0---0---0---0

3---5---7---2

0---0---0---0

0---0---0---0

4---6---7---2

x---x---x---x

 

--0------0---------------0----------0-----------0------0--------------------

--3-----------3----------5----------7-----------2----------2----------------

--0------------------0---0-------0--0------0---0------------------0--------

--0---------------0------0----0-----0---0------0--------------0------------

--4---4------------------6----------7-----------2---2-----------------------

--x----------------------x-----------x----------x----------------------------

 

continued....

 

----0--------0----------------------------------------------

-0h2-------------2-----------------------------------------

----0--------------------0----------------------------------

----0----------------0--------------------------------------

----2---2---------------------------------------------------

----x-------------------------------------------------------

 

Ok, so thats the bit when Chris isn't singing. Its the same chords but different rythm when he is:

--0-------0---------0-----0------0------------------0--------------------0-------

--3----------3------5-----7----------7--------2--------2---------0h2-------2----

--0-----------------0-----0----------------0--0---------------0---0--------------

--0-----------------0-----0-------------0-----0------------0------0--------------

--4---4-------------6-----7---7---------------2--2----------------2--2-----------

--x---------------------------------------------------------------------------------

Chorus:

Slide into the first chord. Strum this using your thumb and first finger

 

9---4---7---0---0

0---0---0---7---2

0---0---0---0---0

9---4---7---0---0

0---0---0---7---2

x---x---x---x---x

 

Then:

0---0---0

8---7---3

0---0---0

9---9---5

0---0---0

10--X--x

 

I think thats right but I haven't got a guitar with me. Will check that later.

 

So thats verses and chorus'

 

 

 

 

what about bucklands ebow tab for this (live 2003)

Link to post
Share on other sites
Can you not just figure that out yourself? There are like 7 notes in the whole ebow tab, maybe less.

 

 

the most intelligent thing to do is to post here because most likely someone knows the CORRECT tab, but thanks anyway

Link to post
Share on other sites
  • 2 weeks later...

I'm looking for a video of 'green eyes' where i can see the chords they play. Live, they normaly play the song in the key of G. Are they tuning the guitar down 2 steps and play the chords earlier mentioned in this thread or are they tuning the high e-string down to D en play the more easier chords G, D/F#, Am, Am7 ( with open 1st string)?

 

In the normal key, are they using a capo or use the 'weird' chords?

 

Thanks

Link to post
Share on other sites
  • 3 weeks later...

Bigger Stronger Jonny's Guitar Riffs

 

Can anyone post a tab of the lead and rhythm parts to "Bigger Stronger"? I would really like the lead part more if possible.

 

Thanks

 

Me too! :cool: I've also been trying to find/figure out Jonny's part to "Bigger Stronger".

 

I did find the chords for it, but that's it so far =

http://www.ultimate-guitar.com/tabs/c/coldplay/bigger_stronger_ver2_crd.htm

 

After watching the Bizarre Festival performance, I got a little bit of Jonny's riffs =

This is after" "I want to be bigger stronger drive a faster car"

e--------------------------------

B-5h-7--5h-7--5h-7--5h-7-

G-------------------------------

D--------------------------------

A--------------------------------

E---------------------------------

 

This is during "To take me anywhere in seconds, to take me anywhere I wanna go"

e--------0---------0h1p0---------3--

B-----1----1----1----------1------3--

G--0---------0---------------0----3--

D-----------------------------------5--

A-----------------------------------5--

E-----------------------------------3--

 

It repeats that during the next verse too.

 

But other than that, it gets trickier to figure out because Jonny play some single notes with a lot of distortion on what looks like the 3rd fret and maybe the 2nd. :thinking:

 

Grrrr... I want to know and play those other riffs so badly! :wreck: :bomb:

Link to post
Share on other sites
Me too! :cool: I've also been trying to find/figure out Jonny's part to "Bigger Stronger".

 

I did find the chords for it, but that's it so far =

http://www.ultimate-guitar.com/tabs/c/coldplay/bigger_stronger_ver2_crd.htm

 

After watching the Bizarre Festival performance, I got a little bit of Jonny's riffs =

This is after" "I want to be bigger stronger drive a faster car"

e--------------------------------

B-5h-7--5h-7--5h-7--5h-7-

G-------------------------------

D--------------------------------

A--------------------------------

E---------------------------------

 

This is during "To take me anywhere in seconds, to take me anywhere I wanna go"

e--------0---------0h1p0---------3--

B-----1----1----1----------1------3--

G--0---------0---------------0----3--

D-----------------------------------5--

A-----------------------------------5--

E-----------------------------------3--

 

It repeats that during the next verse too.

 

But other than that, it gets trickier to figure out because Jonny play some single notes with a lot of distortion on what looks like the 3rd fret and maybe the 2nd. :thinking:

 

Grrrr... I want to know and play those other riffs so badly! :wreck: :bomb:

I made a guitarpro tab for Bigger Stringer.

You can find it at Ultimate guitar.com

I post the guitar here asap.

:)

Link to post
Share on other sites

Create an account or sign in to comment

You need to be a member in order to leave a comment

Create an account

Sign up for a new account in our community. It's easy!

Register a new account

Sign in

Already have an account? Sign in here.

Sign In Now



×
×
  • Create New...