Jump to content
🪐CHECK OUT THE LATEST NEWS AND RUMOURS ON COLDPLAY'S UPCOMING ALBUM🪐

Recommended Posts

  • Replies 773
  • Created
  • Last Reply

Top Posters In This Topic

SPEED OF SOUND (ACOUSTIC)

 

Tuning: Standard!!!

 

0---0---2

2---0---3

2---0---2

2---2---0

0---2---x

x---0---x

and on the second time

5---3---2---2

2---0---0---3

2---0---0---2

2---2---2---0

0---2---2---x

x---0---0---x

 

Chorus

3---5---7

3---5---7

4---6---7

5---7---7

5---7---9

3---5---7

 

 

and the birds

3---2---2---3---2---2

3---3---3---3---3---2

0---4---2---0---4---2

0---4---0---0---4---4

2---2---x---2---2---4

3---x---x---3---x---2

 

so, on the second time, at the end of that do F#m G F#m G D

and then do this which i just worked out. It sounds cool. its the bit where Jonny does the cello sounding bit

 

0

8

0

9

10

x

 

2----0---2

3----3---3

2----2---2

0----0---0

x----x---x

x----x---x

 

10

7

7

7

x

x

 

 

after this bit its...

3---5---7---0

3---5---7---0

4---6---7---1

5---7---7---2

5---7---9---2

3---5---7---0

 

then that bit

 

3---2---2---3---2---2---3

3---3---3---3---3---2---3

0---4---2---0---4---2---4

0---4---0---0---4---4---5

2---2---x---2---2---4---5

3---x---x---3---x---2---3

 

and on the last G, you can go up like it does on the end like this

 

3---3---2

3---5---0

4---4---4

5---x---0

5---5---5

3---3---3

 

that last chord might be hard for some

Link to post
Share on other sites

EASY TO PLEASE

 

Capo 2nd Fret

Tuning

DGDGBD

 

C#madd9------------C#m

 

----0--------------------0

----0--------------------0

----6--------------------7

----9--------------------9

----X--------------------X

----9--------------------9

 

 

Badd11----------------F#m9---------------Eadd11

 

--0----------------------0---------------------0

--5----------------------3---------------------3

--6----------------------0---------------------0

--7----------------------4---------------------4

--X----------------------4---------------------2

--7----------------------2---------------------0

 

-A6-------------------Aadd9------------------A

 

--9----------------------7---------------------0

--0----------------------0---------------------0

--9----------------------7---------------------0

--0----------------------0---------------------0

--0----------------------0---------------------0

--X----------------------X---------------------X

 

A6*------------------Aadd9*---------------B13---------------A*

 

--2----------------------7--------------------4------------------9

--0----------------------0--------------------0------------------0

--0----------------------0--------------------0------------------0

--2----------------------7--------------------4------------------9

--0----------------------0--------------------2------------------0

--X----------------------X--------------------X-----------------X

 

C#madd9 C#madd9

 

C#m Badd11

Love, I hope we get old,

 

F#m9 Eadd11

I hope we can find a way of seeing it all.

 

C#m Badd11

Love, I hope we can be

 

F#m9

I hope I can find a way

 

A6 Aadd9 A6 Aadd9

Of letting you see

 

 

A A6* Aadd9* A6* A*

That I'm so ea - - - - sy to please

 

A6* Aadd9* A6*

So ea - - - - - - - - (sy) (carried on below)

 

B13 Aadd9* A* B13 Aadd9* A*

--sy

 

B13 Aadd9* A* B13 Aadd9* A*

 

Then repeat all that for the second verse with the other words of course

 

Enjoy...

Link to post
Share on other sites

Kapone,

 

I have been searching on the internet for literally months trying to find the tab for "Brothers and Sisters". I actually gave up a few months ago, so I don't know if any new tabs have surfaced, but the main websites I check do not have them.

 

There are 2 studio versions of the song. One of them has the acoustic guitar in the beggining, while the other one starts out with the main melody in electric guitar with some delay effect.

 

Anyways, if you could tab the version with the acoustic guitar in the beggining, I would be so greatful. You don't even have to tab the whole thing, just the acoustic part in the first minute or so. Let me know if you need the song, I can send it to you. It sounds great.

 

Thanks in advance.

Link to post
Share on other sites

BROTHERS AND SISTERS (TROUBLE SINGLE)

 

Capo: Second Fret

 

0----0----0

0----0----0

8----9----11

9----9----12

9----x----12

7----9----10

 

0----0

0----0

4----1

5----2

5----2

3----0

 

then...

0---0---0---0

0---0---0---0

8---6---4---1

9---7---5---2

9---7---5---2

7---5---3---0

 

verse...

0----0----2----0

0----0----3----0

7----2----4----0

9----4----4----2

9----4----x----2

7----2----3----0

 

and its me

0---0---0

3---0---0

4---0---6

4---2---7

x---2---7

3---0---5

 

i've missed a part in between those bits which I'm working on now. NOT FINISHED!

Link to post
Share on other sites

GOD PUT A SMILE UPON YOUR FACE (ACOUSTIC)

 

Tuning: C# G# C# G C# C#

 

0---0---0---0

0---0---0---0

0---3---2---1

0---3---2---1

0---x---x---x

0---3---2---1

 

Yeah...

0---0---0

0---0---0

8---3---5

8---3---5

x---x---x

8---3---5

 

So, thats the way Chris does it. You can do this if you wanna be different.

 

Tuning: tune down guitar 1 and a half things to C#

 

0---0---0---0

0---0---0---0

1---4---3---2

2---5---4---3

2---5---4---3

0---3---2---1

 

Yeah...

0---0---0

0---0---0

7---4---6

9---5---7

9---5---7

8---3---5

Link to post
Share on other sites

Create an account or sign in to comment

You need to be a member in order to leave a comment

Create an account

Sign up for a new account in our community. It's easy!

Register a new account

Sign in

Already have an account? Sign in here.

Sign In Now



×
×
  • Create New...