Jump to content
👽COLDPLAY TO RELEASE HIGHER POWER FRIDAY MAY 7TH📻

Recommended Posts

  • Replies 773
  • Created
  • Last Reply

Top Posters In This Topic

Kapone...just want to say your tabs rock...I'd love for you to finish Spies. And there is a minor correction to make on the second verse chord of Spies that you put...i'm sure it was a typo...

 

you put

0

2

0

1

2

0

 

when it is...

0

2

1

0

2

0

 

just a minor correction...but awesome tab...and i'd love for you to finish soon! thx in advance!

Link to post
Share on other sites

HAVE YOURSELF A MERRY LITTLE CHRISTMAS (TRANSCRIBED)

 

Capo: 1st Fret

 

2---------

0---------

0-------0-

0---------

2--2------

3---------

 

0----------------

0----------------0

0----------0-----

2----2-----------

2-----------------

0-----------------

 

5-------------------

5------------------5

5--------------------

7-------------7------

7--------7-----------

5----5---------------

 

7----5

7----7

7----7

7----7

5----5

x----x

 

Then the kinda sad bit

2---0---5---7---7---7---7

0---0---5---7---8---0---0

0---0---5---8---9---0---0

0---2---7---9---9---5---5

2---2---7---9---7---6---5

3---0---5---7---x---x---x

 

^^^On the second time, this chord is added

7

0

0

5

4

x

 

Then the chorus, "Here we are..."

 

ITS NOT FINISHED> WORKING OUT NOW. I think this is one of the best tabs I've ever worked out!

Link to post
Share on other sites

HARDEST PART (ACOUSTIC)

 

Capo: Third Fret

 

--------------------

--------------------

--------------------

-----------------0---

---0------0--------

-------3-----3-----

 

0----0---0----2

1----0---1----3

0----0---2----2

2----2---2----0

3----2---0----x

x----0---x----x

 

Finishing now

Link to post
Share on other sites

I'm sorry for being slow. But I do not understand those tabs. They look nothing like what I learnt. I'm new to acoustic guitar playing, so those tabs are probably something an acoustic guitar player should be able to read. So bare with me.

 

Kevin

Link to post
Share on other sites

Hey Kapone,

 

I'm starting to work on how to play the guitar part for Square one. If you have a tab for it, it would save me a lot of time. ha ha. I still haven't found a great video for it yet so all I have is the intro so far

Link to post
Share on other sites

SQUARE ONE (ELECTRIC)

 

Tuning: Standard

 

PART:1

-------------------------------8-------------

-----------------8---------------------------

---------------------------------------------

---10----------------------------------------

----------------------------------------------

----------------------------------------------

 

^with a volume pedal or one of Jonny's funky fade pedals

 

PART:2

While Chris starts singing, Jonny lightly picks these randomly with a lot of delay and the funky fade thing

 

---18----------------------------------------

-------------16------------------------------

------------------------17-------------------

----------------------------------------------

----------------------------------------------

----------------------------------------------

 

PART 1 again

 

PART: 3

 

Here, Jonny mutes the strings around the ones he is playing and hits them all to make a kind of shreddy sound

 

-------------------------------------------

-------------------------------------------

-------------------------------------------

-------------------------------------------

---------------8---8---8---10---10------

--8---8---8-------------------------------

 

^three times

 

-------------------------------------------

-------------------------------------------

-------------------------------------------

-----------------8---8---8---10---10----

-------------------------------------------

--8---8---8-------------------------------

 

^once

 

PART:4

 

-------------------------------------------

---9p8-----------9p8--------------------

----------10p8-----------10p8-----------

-------------------------------------------

-------------------------------------------

-------------------------------------------

 

repeated. You'll hear how many times

 

-------------------------------------------

----10p8-------------10p8---------------

-------------10p8--------------10p8-----

-------------------------------------------

-------------------------------------------

-------------------------------------------

 

PART: 5

 

Under the surface...

 

Fade/Volume pedal again

 

-----------------------------------------------------------------------------------

--11------------------------------------------------------------------------------

----------7-----------------------------------------------------------------------

----------7-----------------------------------------------------------------------

-----------------------------------------------------------------------------------

---------------8---8---8----11-----11--11--11----8---8---8---11--11--11--11

 

********************************************************

when it goes,

---

---

---

-7-

-7-

---

---

in the album version, Jonny goes

---

---

---

-7-

-7-

-5-

---

 

but live, he does it like I put it first

 

********************************************************

 

then

-----------------------------------------------------------------------------------

--11------------------------------------------------------------------------------

---------7b8b7-------------------------------------------------------------------

----------------------------------------------------------------------------------

-----------------------------------------------------------------------------------

---------------8---8---8----11-----11--11--11----8---8---8----11--11--11----

 

-----------------------------------------------------------------------------------

-----------------------------------------------------------------------------------

-----------------------------------------------------------------------------------

-----------------------------------------------------------------------------------

-------------------10---10---10--------------------------------------------------

-11---11---11--------------------11-----3-----3----3----6----6----6----3-----

 

-----------------------------------------------------------------------------------

-----------------------------------------------------------------------------------

-----------------------------------------------------------------------------------

-----------------------------------------------------------------------------------

-----------------------------------------------------------------------------------

--------8-------8------8-----11-------11----11----11----8-----8-----8-----11-

 

 

 

PART:6

 

--18--18--------------------------------------------------------------------------

------------16--16----16---------------------------------------------------------

-------------------------------15---15---14---15----17-------------------------

-----------------------------------------------------------------------------------

--------------------------------------------------------------17------------------

-----------------------------------------------------------------------------------

 

^twice

 

Then, its Part 3, Part 4, Part 3, Part 4, Part 6 (6 with fade pedal)

 

 

With all these last parts, there are some variations. Not in what Jonny plays but for how long he plays it. Its easy to hear

 

SQUARE ONE (ACOUSTIC)

 

The bit at the end can be played in two ways. Here are both. The first is how I like it and how it sounds on the album

 

Tuning: EADGCD#

 

0----0----0-----0

0----0----0-----0

5----1----8-----7

6----3----10----0

6----3----10----8

4----1----8-----6

 

OR

 

Tuning: EADGBD#

 

0---0---0-----0

4---1---8-----6

5---1---8-----7

6---3---10----8

6---3---10----8

4---1---8-----6

Link to post
Share on other sites

Create an account or sign in to comment

You need to be a member in order to leave a comment

Create an account

Sign up for a new account in our community. It's easy!

Register a new account

Sign in

Already have an account? Sign in here.

Sign In Now



×
×
  • Create New...