Jump to content
🛒 SHOP THE NEW CHRISTMAS LIGHTS COLLECTION 🛒
the_escapist

Life In Technicolour (Rough Cut) Tab

Recommended Posts

i dont know where to find Life In Technicolor or lost?, can someone please help me before I kill myself<3<3<3

Share this post


Link to post
Share on other sites

im so lost, can someone please just give me the song? im so desperat!

Share this post


Link to post
Share on other sites

Sorry 'the_escapist', I didn't see the word 'tab' in the thread title, I thought you were looking for the song...duh!

Share this post


Link to post
Share on other sites

I'm very much a bum with these things but I'll try and get this started..

 

Life In Technicolor

 

Guy (Melody instrument) Tabbed for guitar

 

E|---------------------------5-5----|

B|--------5-5--------------------5-|

G|---6---------------6-------------|

D|-7---7-------7-7----7----------|

A|---------------------------------|

E|---------------------------------|

 

Guy 2(!!!) Bass

 

The final note here is a bit off tempo but if you listen its not hard to get.

Begins with an A as it fades in.

 

G|-------------|

D|-------------|

A|-------------|

E|-0-2-5-7---|

 

Play twice then hold A until the melody instrument comes in.

 

Just the intro I'll try and work out the rest later

Share this post


Link to post
Share on other sites

When the guitars come in,

Chris' guitar might be like this

 

 

Chords:

 

|F#m | D | A | E/A-something

 

a|---0----------------|---0--------------|----0------------|----x-------------------------

B|---2----------------|---3--------------|----5------------|----x----------------------

G|---2----------------|---2--------------|----6------------|----13--------------------

D|---4----------------|---0--------------|----7------------|----14---------------------

A|---4----------------|-------------------|----7------------|----12-------------------

E|---2----------------|-------------------|----5------------|----12------------------

 

The rhythm:

 

F#m D A A - x3

E/A-someting A A

F#m D A A - x3

Share this post


Link to post
Share on other sites

anyone have a better tab for the acoustic guitar part????

Share this post


Link to post
Share on other sites

---------0----------0--------------0

---------0----------0--------------0

---------2----------11------------6

---------4----------12------------7

---------4----------12------------7

---------2----------10------------5

Share this post


Link to post
Share on other sites

Create an account or sign in to comment

You need to be a member in order to leave a comment

Create an account

Sign up for a new account in our community. It's easy!

Register a new account

Sign in

Already have an account? Sign in here.

Sign In Now



×
×
  • Create New...