Jump to content
🛒 SHOP THE NEW CHRISTMAS LIGHTS COLLECTION 🛒
Kapone

Violet Hill Tab

Recommended Posts

VIOLET HILL (JONNY)

 

This IS how Jonny plays it...

 

Important: The guitar must be tuned half a step down from the following:

E

B

G

D

A

D

 

 

 

-------------

 

 

Main Riff thing:

------------------------

------------------------

------------------------

----5---4---3---2-----

----5---4---3---2-----

----5---4---3---2-----

 

 

 

"When the future.."

--10--10----10----10----10----10----10---10---

--13b-15----15----15----15----15----15---15--

-------------------------------------------------------

-------------------------------------------------------

-------------------------------------------------------

-------------------------------------------------------

 

 

Second verse, kind of strum this every now and then

-----10--10--10----------------------------------------------

-----10--10--10----------------------------------------------

-----------------------------------------------------------------

-----------------------------------------------------------------

-----------------------------------------------------------------

-----------------------------------------------------------------

-----------------------------------------------------------------

-----------------------------------------------------------------

-----------------------------------------------------------------

 

 

"If you love me.."

------------------------------------------------------------------------

------------------------------------------------------------------------

----------10----7-----5-----7----------------------------------------

8---7----10----7-----5-----7----------------------------------------

8---7----8------5-----3-----5----------------------------------------

8---7-------------------------------------------------------------------

 

 

Solo:

--------------------------------------------------------------------------------

---5b6b5---------6-----------------------------------------------------------

--------------7------------------5---------------7----------------------------

--------------------------7--------------7--------------5p0------------------

--------------------------------------------------------------------------------

--------------------------------------------------------------------------------

__________________

Share this post


Link to post
Share on other sites

Could someone make out the tabs for this version?

 

Share this post


Link to post
Share on other sites

Create an account or sign in to comment

You need to be a member in order to leave a comment

Create an account

Sign up for a new account in our community. It's easy!

Register a new account

Sign in

Already have an account? Sign in here.

Sign In Now



×
×
  • Create New...