Jump to content
📺 STREAM COLDPLAY AT GLASTONBURY 2002 REMASTERED IN HD 📺
MosesTheMarshmallow

Moses's Tabs and Stuff

Recommended Posts

Ah same with my school. Actually, there are a lot of people at my school who are really into dancing......I really took the wrong route. :p Good luck! :)

 

.....:o YOU'RE GOING TO SEE BEADY EYE? :o

 

long time no aswer ... sorry !

but lolz , well music is the good route ! :smug:

 

and yes :wacky:

 

^sorry , I don't know the song good enough to help you

Share this post


Link to post
Share on other sites

This is the lead of Yes, please tell me what you think..

 

Yes-Coldplay
Tabbed by: Zergio107
Tuning: EADGBF
Lead guitar


Intro, Bridge, and  Third verse
Listen to the song to figure this part.

f|---0---0---0---0---0---0--0---0---0---0--0-0-0-0-0-0--0---0---0---0---0--0--0--0---0---0---0---0---0---0---0---0---0----|
B|--18--18--18--18--18--18--18--18--18--18\6-6-6-6-6-6/18--18--18--18--18--18\6/18--18--18--18--18--18--18--18--18--18----|
G|------------------------------------------------------------------------------------------------------------------------|
D|------------------------------------------------------------------------------------------------------------------------|
A|------------------------------------------------------------------------------------------------------------------------|
E|------------------------------------------------------------------------------------------------------------------------|

Pre Chorus 1:

f|------------------------------------------------------------------------------------------------------------------------|
B|------------------------------------------------------------------------------------------------------------------------|
G|------------------------------------------------------------------------------------------------------------------------|
D|----------------15--------------------------15---------------------------------15-------------14v-----------------------|
A|---12--13--15--------15h16-----12--13--15---------15h16---15h16----12-13--15---------15h16---------16v--15v-------------|
E|------------------------------------------------------------------------------------------------------------------------|


Pre Chorus 2:

f|------------------------------------------------------------------------------------------------------------------------|
B|------------------------------------------------------------------------------------------------------------------------|
G|------------------------------------------------------------------------------------------------------------------------|
D|----------------15---------------------------15------------------------------15-------------------8---------------------|
A|---12--13--15--------15h16------12--13--15--------15h16---15h16----12-13-15-------15h16----7--9------6--7--8------------|
E|------------------------------------------------------------------------------------------------------------------------|


Chorus

f|-----------------------------------|
B|-----------------------------------|
G|-----------------------------------|
D|-3-------6-------8------3----------|
A|-3-------6-------8------3----------|
E|-1-------4-------6------1----------|



f|----0-----0------0------0----------|
B|----6-----3------4------5----------|
G|----5-----5------5------5----------|
D|-----------------------------------|
A|-----------------------------------|
E|-----------------------------------|


f|------------------------------------------|
B|------------------------------------------|
G|---11-----10-----13-----------------------|
D|---11-----10-----13-----------------------|
A|----9------8-----11-----------------------|
E|------------------------------------------|



Solo:

f|--------------------------------------------------------------|
B|---18r16---16---15---13---------------------------------------|
G|----------------------------13b14---14r13---13--12------------|
D|------------------------------------------------------15--14--|
A|--------------------------------------------------------------|
E|--------------------------------------------------------------|


f|---------------------------------------12-----12------12------12-------12-----12-----12\|
B|---18r16---16---15---13------------------13------13------13------13-------13-----13--13\|
G|--------------------------13b14---13----------------------------------------------------|
D|----------------------------------------------------------------------------------------|
A|----------------------------------------------------------------------------------------|
E|----------------------------------------------------------------------------------------|

Share this post


Link to post
Share on other sites

Wow man this is great! Still having trouble on the rhythm?

Share this post


Link to post
Share on other sites

Yes man. I watched all the live performances of Yes but there aren't good videos (except the one that you gave me), I don't know why they cancel this song of his tour, this is a great song and the ending jam is excellent.

Share this post


Link to post
Share on other sites

Yeah Chinese Sleep Chant is a great song but i was refering to the ending of the live performances, like in this video (the ending starts at 4:02)

[ame=http://www.youtube.com/watch?v=yHFT9azqwSc&feature=related]YouTube - Coldplay - Yes (Live in Toronto July 30th, 2008)[/ame]

Share this post


Link to post
Share on other sites

Now I know what you mean! The ending jam reminds me of their early days for some reason...but yeah. I'm wondering if there are any Viva La Vida tour DVDs.

Share this post


Link to post
Share on other sites

-------------------------------------------------------------------------------
     - Coldplay
-------------------------------------------------------------------------------
Tabbed by: MosesTheMarshmallow
Email: [email protected]

Tuning: EADGc#c#
Time Signature: 4/4 (4 beats per bar)

C#m - 9,11,11,9,0,0
Bsus2 - 7,9,9,8,0,0
A - 577600
F#m7 - 244230 or 244200
F - 133200
E6 - 022100
G#m - 466400
E - 12,14,14,13,0,0

Verse:
C#m (1.5 bars [6 beats]) - Bsus2 (2 beats) - A (4 beats) - F#m7 (2 beats beats)
F#m-F-E6 (this is the cool switch that happens within 2 beats)

Verse again:
C#m - Bsus2 - A - F#m7
F#m-F-E6

Prechorus:
A (4 beats) - Bsus2 (4 beats) - C#m (4 beats) - Bsus2 (3 beats)

Chorus: the beats don't seem to add up so I'll just have it follow the lyrics:

G#m    A    G#m
If you love me,

E         C#m Bsus2   
Won't you let me

C#m (8 beats)    
know?



Verse twice:
C#m - Bsus2 - A - F#m7
F#m-F-E6
C#m - Bsus2 - A - F#m7
F#m-F-E6

Prechorus:
A - Bsus2 - C#m - Bsus2
Chorus: G#m - A - G#m - E - C#m - Bsus2 - C#m

Solo:
C#m (8 beats) - A (4 beats) - F#m (2 beats) F#m-F-E6
C#m - A - F#m - F#m-F-E6

Prechorus + Chorus again

Outro (fingerpicking the chords, they follow the lyrics)

A      Bsus2 C#m  F#m     E   C#m Bsus2
I took my    love down to Vio-let Hill,

A     Bsus2  C#m G#m A
There we     sat in  snow,

A   Bsus2  C#m  F#m     E  C#m  Bsus2 
All the    time she was si-lent still,

  G#m    A    G#m
So if you love me,

E         C#m Bsus2 C#m
Won't you let me    know.


===============================================================================

 

Does he use E on the song? Because I can't play it on my guitar, it's too high, and I don't think he plays it on Glastonbury 2011.

Also, thumb chords are hard.

Here is the Glastonbury 2011 link,

Share this post


Link to post
Share on other sites

That's a hundred percent correct. For the E, you can do a regular one, or go to the 12th fret like Chris does. I do it, and I don't have a cutaway.

Share this post


Link to post
Share on other sites

Hey guys.......as you can tell I'm incredibly absentee and don't have enough time to do things seriously anymore. :( Zergio I don't know if you're still around man, but thanks for your help over the months.

 

Incidentally, I just finished tabbing Violet Hill's lead guitar and bass on a whim, so here we go! Let me know, bass players, if I got the tuning right since it's a correct way to play it, but I don't know if it's the best way.

 

Regarding Jonny's tuning, it should be C#G#C#F#Ad# so that at the end of the choruses, he can play a really loud C# chord, 0577xx.

 

Violet Hill - Coldplay
Tuning: DADGBe, might actually be C#G#C#F#Ad# (but that’s just a hassle)
Time Signature: 4/4 except for in the choruses

Roadmap:
Intro = 13 bars of creative harmonics on these notes: C#, D#, or G#...or B (esp 9th fret)
Verse 1
Prechorus + Chorus
Verse 2
Prechorus + Chorus
Solo
Prechorus + Chorus
Outro

Verse 1 – Play this twice
 C#m                                                   C#m/B
e|-----------------------------------|-----------------------------------|
B|-----------------------------------|-----------------------------------|
G|--------|--------|--------|--------|--------|--------|--------|--------|
D|--------|--------|--------|--------|--------|--------|--------|--------|
A|-----------------------------------|-----------------------------------|
D|-----------------------------------|-----------------------------------|

 A                                   F#m              F#m F     E D#
e|-----------------------------------|-----------------------------------|
B|-----------------------------------|-----------------------------------|
G|--------|--------|--------|--------|--------|--------|--------|--------|
D|--------|--------|--------|--------|--------|--------|4-3-----|2-1-----|\11x
A|-----------------------------------|------------------4-3------2-1-----|\11x
D|-----------------------------------|------------------4-3------2-1-----|\11x

Prechorus and Chorus – Lots of good fill opportunities here.
 A                                   B
e|-----------------------------------|-----------------------------------|
B|12-b14---14--14---14--14---14--14--|12-b14---14--14---14--14---14--14--|
G|--------|--------|--------|--------|--------|--------|--------|--------|
D|--------|--------|--------|--------|--------|--------|--------|--------|
A|-----------------------------------|-----------------------------------|
E|-----------------------------------|-----------------------------------|

 C#m                                 B                          G#m
e|-----------------------------------|-----------------------------------|
B|12-b14---14--14---14--14---14--14--|12-b14---14--14---14--14-----------|
G|--------|--------|--------|--------|--------|--------|--------|--------|
D|--------|--------|--------|--------|--------|--------|--------|6-------|
A|-----------------------------------|---------------------------6-------|
E|-----------------------------------|---------------------------6-------|

 A            G#m           E        C#m      B       
e|-----------------------------------|-----------------|
B|---------------------------9-------|5--------4-------|
G|--------|--------|--------|9-------|6-------|4-------|
D|7-------|----6---|--------|9-------|6-------|4-------|
A|7------------6-------------7-------|4--------2-------|
D|7------------6---------------------|-----------------|

 C#m
e|-----------------------------------|-----------------------------------|
B|-----------------------------------|-----------------------------------|
G|6-------|6-------|6-------|6-------|6-------|6-------|6-------|6-------|
D|6-------|6-------|6-------|6-------|6-------|6-------|6-------|6-------|
A|4--------4-------|4--------4-------|4--------4-------|4--------4-------|
D|-----------------------------------|-----------------------------------|
Verse 2 – Play this twice, I included the 2nd electric guitar track in parentheses, but live, Jonny only plays the 9’s. It is feasible to play both though.
 C#m                                                   C#m/B
e|-----------------------9-9--9-------|----------------------9-9--9-------|
B|-----------------------9-9--9-------|----------------------9-9--9-------|
G|---------|--------|----9-9-|9-------|--------|--------|----9-9-|9-------|
D|(9b11-11-|11--11--|11--11--|11--11--|9b11-11-|11--11--|11--11--|11--11--|
A|------------------------------------|-----------------------------------|
D|------------------------------------|-----------------------------------|

 A                                   F#m              F#m F     E D#
e|----------------------9-9--9-------|-----------------------------------|
B|----------------------9-9--9-------|-----------------------------------|
G|--------|--------|----9-9-|9-------|--------|--------|--------|--------|
D|9b11-11-|11--11--|11--11--|11--11--|9b11-11-|11--11)-|4-3-----|2-1-----|\11x
A|-----------------------------------|------------------4-3------2-1-----|\11x
D|-----------------------------------|------------------4-3------2-1-----|\11x

End of 2nd Chorus and Solo
 C#m
e|-----------------------------------|-----------------------------------|
B|-----------------------------------|-----------------------------7-----|
G|6-------|6-------|6-------|6-------|6-------|6-------|6-------|----8p6-|
D|6-------|6-------|6-------|6-------|6-------|6-------|6-------|--------|
A|4--------4-------|4--------4-------|4--------4-------|4----------------|
D|-----------------------------------|-----------------------------------|

Solo – Again, improve opportunities, pentatonic, maybe C#m blues

 C#m                                                   C#m/B
e|-----------------------------------|-----------------------------------|
B|-----------------------------7-----|-----------------------------7-----|
G|9-------|4-------|6-------|----8p6-|9-------|4-------|6-------|----8-6-|
D|----6x--|----6x--|----4h6x|--------|----6x--|----6x--|----4h6x|--------|
A|-----------------------------------|-----------------------------------|
D|-----------------------------------|-----------------------------------|

 A                                   F#m              F#m F     E D#
e|-----------------------------------|-----------------------------------|
B|-----------------------------7-----|----------------------------(7-----|
G|9-------|4-------|6-------|----8-6-|9-------|4-------|--------|----8-6)|
D|----6x--|----6x--|----4h6x|--------|----6x--|----6x--|4-3-----|2-1-----|
A|-----------------------------------|------------------4-3------2-1-----|
D|-----------------------------------|------------------4-3------2-1-----|

Note that there is a 16th note overlap in the pickup to the next part of the solo after the walkdown; live, Jonny just doesn’t play the pickup.

 C#m                                                   C#m/B
e|-----------------------------------|-----------------------------------|
B|9--------4--------5----------7-----|9--------4--------5----------7-----|
G|9-------|4-------|6-------|----8p6-|9-------|4-------|6-------|----8p6-|
D|----6x--|----6x--|----4h6x|--------|----6x--|----6x--|----4h6x|--------|
A|-----------------------------------|-----------------------------------|
D|-----------------------------------|-----------------------------------|

 A                                   F#m              F#m F     E D#
e|-----------------------------------|-----------------------------------|
B|9--------4--------5----------7-----|9--------4-------------------------|
G|9-------|4-------|6-------|----8p6-|9-------|4-------|--------|--------|
D|----6x--|----6x--|----4h6x|--------|----6x--|----6x--|4-3-----|2-1-----|
A|-----------------------------------|------------------4-3------2-1-----|
D|-----------------------------------|------------------4-3------2-1-----|
Outro

Fingerpicked chords, very free tempo, it follows the singing more than it does any meter. 

                I  took my  love     down to vio       -let     hill
 A…                B        C#m      F#m     E         C#m      B
e|-----------------------------------|-----------------------------------|
B|-----------------------------------|10-------9-------------------------|
G|6-------|--------|8-------|9-------|11------|9-------|9-------|8-------|
D|7-------|--------|9-------|11------|11------|9-------|11------|9-------|
A|7-----------------9--------11------|------------------11-------9-------|
D|-----------------------------------|-----------------------------------|

             There we       sat      in       snow
 A…                B        C#m      G#m     A         
e|-----------------------------------|-----------------------------------|
B|-----------------------------------|-----------------------------------|
G|6-------|--------|8-------|9-------|4-------|6-------|--------|--------|
D|7-------|--------|9-------|11------|6-------|7-------|--------|--------|
A|7-----------------9--------11------|6--------7-------------------------|
D|-----------------------------------|-----------------------------------|

 All      that     time     she was  si-      lent     still so if you
 A…       B        C#m      F#m      E        C#m      B
e|-----------------------------------|-----------------------------------|
B|---------------------------10------|9----------------------------------|
G|6-------|8-------|9-------|11------|9-------|9-------|8-------|4-------|
D|7-------|9-------|11------|11------|9-------|11------|9-------|6-------|
A|7--------9--------11---------------|---------11-------9--------6-------|
D|-----------------------------------|-----------------------------------|

 Love         me            woncha   let
 A            G#m           E*        C#m      B        A
e|-----------------------------------|-----------------------------------|
B|---------------------------9-------|-----------------------------------|
G|6-------|----4---|--------|9-------|9-------|8-------|6-------|--------|
D|7-------|----6---|--------|9-------|11------|9-------|7-------|--------|
A|7------------6---------------------|11-------9--------7----------------|
D|-----------------------------------|-----------------------------------|

Live, Jonny plays a lower E, x221xx…but I like the barre E better.

      So  if you   love         me            woncha   let      me       know     
          G#m      A            G#m           E*        C#m      B       C#m
e|-----------------------------------|-----------------------------------|
B|-----------------------------------|---------9-------------------------|
G|--------|4-------|6-------|----4---|--------|9-------|9-------|8-------|6
D|--------|6-------|7-------|----6---|--------|9-------|11------|9-------|6
A|---------6--------7------------6---|------------------11-------9-------|4
D|-----------------------------------|-----------------------------------|

Acoustic Guitar Chords, tuned EADGc#c#
C#m - 9,11,11,9,0,0
Bsus2 (also used as C#m/B) - 7,9,9,8,0,0
A - 577600
F#m - 244200
Walkdown chords: F – 133100, E – 022100, D# - 11,13,13,11,0,0
G#m - 466400
E - 12,14,14,13,0,0




Violet Hill – Coldplay, Bass

Roadmap:
Verse 1
1st Prechorus/chorus
Verse 2
2nd Prechorus/chorus
Guitar Solo
3rd Prechorus/chorus = same as 2nd p/c

Verse 1
G |-----------------------------------|-----------------------------------|
D |--------|--------|--------|--------|--------|--------|--------|--------|
A |--------|--------|--------|--------|--------|--------|--------|--------|
Eb|-----------------------------------|-----------------------------------|


G |-----------------------------------|-----------------------------------|
D |--------|--------|--------|--------|--------|--------|--------|--------|
A |--------|--------|--------|--------|--------|--------|--------|--------|
Eb|-----------------------------------|------------------3-2------1-0-----|

 C#m                                                    C#m/B
G |-----------------------------------|-----------------------------------|
D |--------|--------|--------|1-------|--------|--------|--------|1-------|
A |4-------|4-------|----2---|----2---|4-------|4-------|----2---|----2---|
Eb|---------------5--5----------------|---------------5--5----------------|

  A                                   F#m               F#m F    E D#
G |-----------------------------------|-----------------------------------|
D |--------|--------|--------|--------|--------|--------|--------|--------|
A |--------|--------|--------|--------|--------|--------|--------|--------|
Eb|6--------6--------6--------6~------\3--------3--------3-2------1-0-----|

1st Prechorus/Chorus
  A                                   B
G |-----------------------------------|-----------------------------------|
D |--------|--------|--------|--------|--------|--------|--------|--------|
A |--------|--------|--------|--------|--------|--------|--------|--------|
Eb|6--------6--------6--------6~------|8--------8--------8--------8-------|

  C#m                                 B                          G#m
G |-----------------------------------|-----------------------------------|
D |--------|--------|--------|--------|--------|--------|--------|--------|
A |--------|--------|--------|--------|--------|--------|--------|--------|
Eb/10-------10-------10------/17------|8--------8--------8--------5-------|

  A            G#m           E        C#m      B
G |-----------------------------------|-----------------|
D |--------|--------|--------|--------|--------|--------|
A |--------|--------|--------|--------|4-------|2-------|
Eb|6------------5-------------1-------|-----------------|

  C#m
G |-----------------------------------|-----------------------------------|
D |--------|--------|--------|--------|--------|--------|--------|--------|
A |4-------|4-------|4-------|4-------|4-------|4-------|4-------|4-------|
Eb|-----------------------------------|-----------------------------------|





2nd Verse – Play this twice
 C#m                                                    C#m/B
G |-----------------------------------|-----------------------------------|
D |--------|--------|--------|1-------|--------|--------|--------|1-------|
A |4-------|4-------|----2---|----2---|4-------|4-------|----2---|----2---|
Eb|---------------5--5----------------|---------------5--5----------------|

  A                                   F#m               F#m F    E D#
G |-----------------------------------|-----------------------------------|
D |11--9---|11~-----|----9---|11------|--------|--------|--------|--------|
A |--------|--------|--------|--------|--------|--------|--------|--------|
Eb|-----------------------------------|3--------3--------3-2------1-0-----|

2nd Prechorus/Chorus
  A                                   B
G |-----------------------------------|-----------------------------------|
D |--------|--------|--------|--------|--------|--------|--------|--------|
A |--------|--------|--------|--------|--------|--------|--------|--------|
Eb|6--------6-----6--6-----6-/13--13--|8--------8-----8--8-----8-/15--15--|

  C#m                                 B                          G#m
G |-----------------------------------|-----------------------------------|
D |--------|--------|--------|--------|--------|--------|--------|--------|
A |--------|--------|--------|--------|--------|--------|--------|--------|
Eb|10-------10---17--17------17/10----|8--------8--------8--------5-------|

  A            G#m           E        C#m      B
G |-----------------------------------|-----------------|
D |--------|--------|--------|--------|--------|--------|
A |--------|--------|--------|--------|4-------|2-------|
Eb|6------------5-------------1-------|-----------------|

  C#m
G |-----------------------------------|-----------------------------------|
D |--------|--------|--------|--------|--------|--------|--------|--------|
A |4-------|4-------|4-------|4-------|4-------|4-------|4-------|4-------|
Eb|-----------------------------------|-----------------------------------|


Guitar Solo
 C#m                                                    C#m/B
G |-----------------------------------|-----------------------------------|
D |--------|--------|--------|1-------|--------|--------|--------|1-------|
A |4-------|4-------|----2---|----2---|4-------|4-------|----2---|----2---|
Eb|---------------5--5----------------|---------------5--5----------------|

  A                                   F#m               F#m F    E D#
G |-----------------------------------|-----------------------------------|
D |--------|--------|--------|--------|--------|--------|--------|--------|
A |--------|--------|--------|--------|--------|--------|--------|--------|
Eb|6--------6--------6--------6-------|3--------3--------3-2------1-0-----|
 C#m                                                    C#m/B
G |-----------------------------------|-----------------------------------|
D |--------|--------|--------|1-------|--------|--------|--------|1-------|
A |4-------|4-------|----2---|----2---|4-------|4-------|----2---|----2---|
Eb|---------------5--5----------------|---------------5--5----------------|

  A                                   F#m               F#m F    E D#
G |-----------------------------------|-----------------------------------|
D |--------|--------|--------|--------|--------|--------|--------|--------|
A |--------|--------|--------|11-\9~--|--------|--------|--------|--------|
Eb|6--------6--------6----------------|---------3--------3-2------1-0-----|

Share this post


Link to post
Share on other sites

Because I was feeling motivated, here's DLIBYH. Please note that this is NOT Jonny's exact part because what I made was my own adaptation based on the live version + some little bits of the album version. If you want to match the live version exactly, you must tune your guitar down a half step and play a lot of powerchords, which I think are pretty self explanatory if you have an alright understanding of music. Otherwise, here's something that'll get you 90% of the way.

 

Don´t Let it Break Your Heart - Coldplay
Tuning: My adaptation is in standard, CP live is ½ step down 

A Hopeful Transmission (adaptation of the strings –16th notes, only heads of beats shown)
*I’m also going to show a string melody, just to give ourselves more stuff to work with. The strings I would play as tremolo picking.
 Bb                  Bb/Eb               Bb                  Bb/D
e|-------------------|-------------------|-------------------|-------------------|
B|15--|15--|15--|15--|13--|13--|13--|13--|11--|11--|11--|11--|10--|10--|10--|10--|
G|3~~-|----|----|----|8---|----|----|----|3---|----|----|----|7---|----|----|----|
D|-------------------|-------------------|-------------------|-------------------|
A|-------------------|-------------------|-------------------|-------------------|
E|-------------------|-------------------|-------------------|-------------------|

 Eb                  Eb/F      Eb/G      Bb                  Bb/D
e|-------------------|-------------------|-------------------|-------------------|
B|15--|15--|15--|15--|13--|13--|13--|13--|11--|11--|11--|11--|11--|11--|11--|11--|
G|8---|----|----|----|10--|----|12--|----|15--|----|----|----|7---|----|----|----|
D|-------------------|-------------------|-------------------|-------------------|
A|-------------------|-------------------|-------------------|-------------------|
E|-------------------|-------------------|-------------------|-------------------|

 Bb*                 Bb/Eb               Bb                  Bb/D
e|-------------------|-------------------|-------------------|-------------------|
B|15--|15--|15--|15--|13--|13--|13--|13--|11--|11--|11--|11--|10--|10--|10--|10--|
G|3~~-|----|----|----|8---|----|----|----|3---|----|----|----|7---|----|----|----|
D|-------------------|-------------------|-------------------|-------------------|
A|-------------------|-------------------|-------------------|-------------------|
E|-------------------|-------------------|-------------------|-------------------|

 Eb                  Eb/F      Eb/G      Bb                  
e|-------------------|-------------------|-------------------|-------------------|
B|15--|15--|15--|15--|13--|13--|13--|13--|11--|11--|11--|11--|15~-|\11-|16~-|\11-|
G|8---|----|----|----|10--|----|12--|----|3---|----|----|----|----|----|----|----|
D|-------------------|-------------------|-------------------|-------------------|
A|-------------------|-------------------|-------------------|-------------------|
E|-------------------|-------------------|-------------------|-------------------|

*Melody of UFO – enters on the 2nd iteration of AHT – tremolo pick 32nd notes (16th downstrums)

 Bb
e|-------------------|-------------------|-------------------|-------------------|
B|-------------------|-------------------|-------------------|-------------------|
G|10--|----|--7-|10--|12--|----|--15|12--|10--|----|----|----|3---|----|----|----|
D|----|----|----|----|----|----|----|----|----|----|----|----|----|----|----|----|
A|-------------------|-------------------|-------------------|-------------------|
E|-------------------|-------------------|-------------------|-------------------|

 Eb
e|-------------------|-------------------|-------------------|-------------------|
B|-------------------|-------------------|-------------------|15~-|\11-|16~-|\11-|
G|8---|----|--10|8---|7---|----|--8-|7---|3~--|----|----|----|----|----|----|----|
D|----|----|----|----|----|----|----|----|----|----|----|----|----|----|----|----|
A|-------------------|-------------------|-------------------|-------------------|
E|-------------------|-------------------|-------------------|-------------------|









Intro (contains 1 main riff [MR])
Verse 1
1st Chorus
Verse 2: MR w/ var, 8 bars verse, On we Crawl, MR, Slowly, 4 bars of verse, MR w/ var2
2nd Chorus: has 1 MR at end
Solo
Outro

Intro – I’m showing an upper treble (tremolo and/or high sustain…possibly sound swells) but Jonny plays a lot of powerchords live. 
 Eb                                      F
e|-------------------|-------------------|--------------------|--------------------|
B|16~-------18~------|11~----------------|15---15---15-15---13|-----10-11---13-----|
G|----|----|----|----|----|----|----|----|----|----|-----|----|----|-----|----|----|
D|----|----|----|----|----|----|----|----|----|----|-----|----|----|-----|----|----|
A|-------------------|-------------------|--------------------|--------------------|
E|-------------------|-------------------|--------------------|--------------------|

 Dm                                       Eb                             Dm
e|--------------------|-------------------|--------------------|-------------------|
B|15---15---15-15---15|15---15---15-15--15|16---16---16-16---16|16~-------18~------|
G|----|----|-----|----|----|----|----|----|----|----|-----|----|----|----|----|----|
D|----|----|-----|----|----|----|----|----|----|----|-----|----|----|----|----|----|
A|--------------------|-------------------|--------------------|-------------------|
E|--------------------|-------------------|--------------------|-------------------|

(Main Riff)
 Eb                                         
e|-------------------------------------------|-------------------------------------------|
B|11---15p13-11--------------11--------------|11--------------11---------------11--------|
G|----------|----------|12--------|----10----|----------|----------|----------|----------|
D|----------|----------|----------|----------|----------|12--------|-----10---|----------|
A|-------------------------------------------|-------------------------------------------|
E|-------------------------------------------|-------------------------------------------|

 Cm                                          Eb
e|-------------------------------------------|-------------------------------------------|
B|-----11---------------11--------/13--\11---|-----11---------------11-------------------|
G|----------|----------|----------|----------|----------|----------|----------|----------|
D|8---------|-----8----|----------/10--\8----|----------|-----8----|----------|----------|
A|-------------------------------------------|-------------------------------------------|
E|-------------------------------------------|-------------------------------------------|

Verse 1 – Lots of sustain on the verse riff
 Bb                   Dm                   Gm                   Eb
e|--------------------|--------------------|--------------------|--------------------|
B|---16------16-------|---15------15-------|---13------13-------|---11------11-------|
G|-----|----|----|----|-----|----|----|----|-----|----|----|----|-----|----|----|----| x3
D|13---|--13|----|----|12---|--12|----|----|10---|--10|----|----|8----|--8-|----|----|
A|--------------------|--------------------|--------------------|--------------------|
E|--------------------|--------------------|--------------------|--------------------|

 Bb                   Dm                   Gm                   Eb
e|--------------------|--------------------|--------------------|--------------------|
B|---16------16-------|---15------15-------|---10------10~------|---11------11~~-----|
G|-----|----|----|----|-----|----|----|----|-----|----|----|----|-----|----|----|----| 
D|13---|--13|----|----|12---|--12|----|----|7----|--7-|----|----|8----|--8-|----|----|
A|--------------------|--------------------|--------------------|--------------------|
E|--------------------|--------------------|--------------------|--------------------|





1st Chorus
 Eb                                      F
e|-------------------|-------------------|--------------------|--------------------|
B|11---11---11---11--|11---11---11---11--|15---15---15-15---13|-----10-11---13-----|
G|----|----|----|----|----|----|----|----|----|----|-----|----|----|-----|----|----|
D|----|----|----|----|----|----|----|----|----|----|-----|----|----|-----|----|----|
A|-------------------|-------------------|--------------------|--------------------|
E|-------------------|-------------------|--------------------|--------------------|

 Dm                                       Eb                             Dm
e|--------------------|-------------------|--------------------|-------------------|
B|15---15---15-15---15|15---15---15-15--15|16---16---16-16---16|16~-------15~------|
G|----|----|-----|----|----|----|----|----|----|----|-----|----|----|----|----|----|
D|----|----|-----|----|----|----|----|----|----|----|-----|----|----|----|----|----|
A|--------------------|-------------------|--------------------|-------------------|
E|--------------------|-------------------|--------------------|-------------------|

 Eb                                      Cm                   Eb
e|-------------------|-------------------|--------------------|--------------------|
B|16~~~--------------|-------------------|13~~----------------|11~~----------------|
G|----|----|----|----|----|----|----|----|----|----|-----|----|----|-----|----|----|
D|----|----|----|----|----|----|----|----|----|----|-----|----|----|-----|----|----|
A|-------------------|-------------------|--------------------|--------------------|
E|-------------------|-------------------|--------------------|--------------------|


Verse 2

(Main Riff) w/ slight variation
 Eb                                         
e|-------------------------------------------|-------------------------------------------|
B|11---15p13-11--------------11--------------|11--------------11---------------11--------|
G|----------|----------|12--------|----10----|----------|----------|----------|----------|
D|----------|----------|----------|----------|----------|12--------|-----10---|----------|
A|-------------------------------------------|-------------------------------------------|
E|-------------------------------------------|-------------------------------------------|

 Cm                                          Eb
e|-------------------------------------------|-------------------------------------------|
B|-----13---------------13--------/13--\11---|-----11---------------11-------------------|
G|----------|----------|----------|----------|----------|----------|----------|----------|
D|8---------|-----8----|----------/10--\8----|----------|-----8----|----------|----------|
A|-------------------------------------------|-------------------------------------------|
E|-------------------------------------------|-------------------------------------------|

Singing starts (Though heavily we bled)
 Bb                   Dm                   Gm                   Eb
e|--------------------|--------------------|--------------------|--------------------|
B|---16------16-------|---15------15-------|---13------13-------|---11------11-------|
G|-----|----|----|----|-----|----|----|----|-----|----|----|----|-----|----|----|----| 
D|13---|--13|----|----|12---|--12|----|----|10---|--10|----|----|8----|--8-|----|----|
A|--------------------|--------------------|--------------------|--------------------|
E|--------------------|--------------------|--------------------|--------------------|

 Bb                   Dm                   Gm                   Eb
e|--------------------|--------------------|--------------------|--------------------|
B|---13------13-------|---15------15-------|---10---10-10~------|---11------11~~-----|
G|8*---|----|----|----|10---|----|----|----|5----|----|----|----|7----|----|----|----| 
D|10---|--10|----|----|12---|--12|----|----|7----|----|----|----|8----|--8-|----|----|
A|--------------------|--------------------|--------------------|--------------------|
E|--------------------|--------------------|--------------------|--------------------|

(the G string melody is the oooh’s that Will sings but just ignore/sing those)

(On we crawl) – tremolo here
 Eb
e|-------------------|-------------------|-------------------|-------------------|
B|-------------------|-------------------|-------------------|-------------------|
G|----|----|----|----|----|----|----|----|----|----|----|----|----|----|----|----|
D|5~--|----/8---|----\7---|----/8---|----\5---|----/8---|----\3---|----/8---|----|
A|-------------------|-------------------|-------------------|-------------------|
E|-------------------|-------------------|-------------------|-------------------|

(Main Riff) 
 Eb                                         
e|-------------------------------------------|-------------------------------------------|
B|11---15p13-11--------------11--------------|11--------------11---------------11--------|
G|----------|----------|12--------|----10----|----------|----------|----------|----------|
D|----------|----------|----------|----------|----------|12--------|-----10---|----------|
A|-------------------------------------------|-------------------------------------------|
E|-------------------------------------------|-------------------------------------------|

 Cm                                          Eb
e|-------------------------------------------|-------------------------------------------|
B|-----11---------------11--------/13--\11---|-----11---------------11-------------------|
G|----------|----------|----------|----------|----------|----------|----------|----------|
D|8---------|-----8----|----------/10--\8----|----------|-----8----|----------|----------|
A|-------------------------------------------|-------------------------------------------|
E|-------------------------------------------|-------------------------------------------|


(Slowly) – This functions as a backing vocal (you could also sing it)
 Gm                                       Eb
e|-------------------|--------------------|-------------------|-------------------|
B|-------------------|--------------------|-------------------|-------------------|
G|----|----|----|----|----|----|-----|----|----|----|----|----|----|----|----|----| x2
D|8---|----|8-10|--12|----|----|12-13|--8~|----|----|----|----|x---|----|----|----|
A|-------------------|--------------------|-------------------|-------------------|
E|-------------------|--------------------|-------------------|-------------------|


(Through my veins is flowing)

 Bb                   Dm                   Gm                   Eb
e|--------------------|--------------------|--------------------|--------------------|
B|---16------16-------|---15------15-------|---10------10~------|---11------11~~-----|
G|-----|----|----|----|-----|----|----|----|-----|----|----|----|-----|----|----|----| 
D|13---|--13|----|----|12---|--12|----|----|7----|--7-|----|----|8----|--8-|----|----|
A|--------------------|--------------------|--------------------|--------------------|
E|--------------------|--------------------|--------------------|--------------------|

(Main Riff w/ another variation) 
 Eb                                         
e|-------------------------------------------|-------------------------------------------|
B|11---15p13-11--------------11--------------|11--------------11---------------11--------|
G|----------|----------|12--------|----10----|----------|----------|----------|----------|
D|----------|----------|----------|----------|----------|12--------|-----10---|----------|
A|-------------------------------------------|-------------------------------------------|
E|-------------------------------------------|-------------------------------------------|

 Cm                                          Eb
e|-------------------------------------------|-------------------------------------------|
B|-----11---------------11--------/13--\11---|16~~~-----------------18~~~----------------|
G|----------|----------|----------|----------|----------|----------|----------|----------|
D|8---------|-----8----|----------/10--\8----|----------|----------|----------|----------|
A|-------------------------------------------|-------------------------------------------|
E|-------------------------------------------|-------------------------------------------|

2nd Chorus These two lines twice, then a main riff
 Eb                                      F
e|-------------------|-------------------|--------------------|--------------------|
B|11---11---11---11--|11~--11---11---11--|15---15---15-15---13|-----10-11---13-----|
G|----|----|----|----|----|----|----|----|----|----|-----|----|----|-----|----|----|
D|----|----|----|----*5-5-|----|5---|5---|3~--|----|-----|--3-|----|-----|----|----|
A|-------------------|-------------------|--------------------|--------------------|
E|-------------------|-------------------|--------------------|--------------------|
*Backing vocal:       When-you’re…tired-of-ai…………………………………….ming 
                     E-ven     in……your..ra………………………………………..in

 Dm                                       Eb                             Dm
e|--------------------|-------------------|--------------------|-------------------|
B|15---15---15-15---15|15---15---15-15--15|16---16---16-16---16|16~-------15~------|
G|----|----|-----|----|----|----|----|----|----|----|-----|----|----|----|----|----|
D|----|----|-----|----|----|----|1---|---3|5---|----|-----|----|----|----|----|----|
A|--------------------|-------------------|--------------------|-------------------|
E|--------------------|-------------------|--------------------|-------------------|
                                Hit………the-mark
                                Go……………na-part

*Main Riff*


Solo – Tremolo Picking (The emphasized notes are shown, which follow the drums and singing)
 Bb                   Dm                   Gm                   Eb
e|--------------------|--------------------|--------------------|-------------------|
B|--------------------|--------------------|--------------------|-------------------|
G|----|----|-----|----|----|----|-----|----|----|----|-----|----|----|----|----|----| x2
D|12~-|----|12-13|--15|----|----|15-17|--10|----|----|10-10|--8~|----|----|----|----|
A|--------------------|--------------------|--------------------|-------------------|
E|--------------------|--------------------|--------------------|-------------------|


Outro – Something with more tremolo and sustain or sound swells. Or something. We have room to be creative. Transcribed is the overdriven synth part. Fades in from the solo, and the tempo halves (but the tab is written with DLIBYH’s tempo).

These two lines twice:
  Eb                                      F
e||-------------------|-------------------|-------------------|-------------------|
B|:11---11---11---11--|11---11---11---11--|11---11---11---11--|6----6----6----6---|
G||----|----|----|----|----|----|----|----|----|----|----|----|----|----|----|----|
D||----|----|----|----|----|----|----|----|----|----|----|----|----|----|----|----|
A|:-------------------|-------------------|-------------------|-------------------|
E||-------------------|-------------------|-------------------|-------------------|

 Dm                                      Eb
e|-------------------|-------------------|-------------------|-------------------||
B|10---10---10---10--|10---10---10---10--|11---11---11---11--|11---11---11---11--:|
G|----|----|----|----|----|----|----|----|----|----|----|----|----|----|----|----||
D|----|----|----|----|----|----|----|----|----|----|----|----|----|----|----|----||
A|-------------------|-------------------|-------------------|-------------------:|
E|-------------------|-------------------|-------------------|-------------------||


 Eb                                      Cm                  Eb                  Bb
e|-------------------|-------------------|-------------------|-------------------|
B|11---11---11---11--|4----4----4----4---|11---11---11---11--|11---11---11---11--|11~
G|----|----|----|----|----|----|----|----|----|----|----|----|----|----|----|----|
D|----|----|----|----|----|----|----|----|----|----|----|----|----|----|----|----|
A|-------------------|-------------------|-------------------|-------------------|
E|-------------------|-------------------|-------------------|-------------------|
Bass: DLBIYH – Coldplay

Tuning: Eb-A-D-G 

A Hopeful Transmission – adaptation of the cello part: sustain these
  Bb                  Bb/Eb               Bb                  Bb/D
G |3------------------/8------------------|3------------------/7------------------|
D |----|----|----|----|----|----|----|----|----|----|----|----|----|----|----|----|
A |----|----|----|----|----|----|----|----|----|----|----|----|----|----|----|----|
Eb|-------------------|-------------------|-------------------|-------------------|

  Eb                  Eb/F      Eb/G      Bb                  Bb/D
G |8------------------/10--------12-------|3------------------/7------------------|
D |----|----|----|----|----|----|----|----|----|----|----|----|----|----|----|----|
A |----|----|----|----|----|----|----|----|----|----|----|----|----|----|----|----|
Eb|-------------------|-------------------|-------------------|-------------------|

  Bb                  Bb/Eb               Bb                  Bb/D
G |3------------------/8------------------|3------------------/7------------------|
D |----|----|----|----|----|----|----|----|----|----|----|----|----|----|----|----|
A |----|----|----|----|----|----|----|----|----|----|----|----|----|----|----|----|
Eb|-------------------|-------------------|-------------------|-------------------|

  Eb                  Eb/F      Eb/G      Bb                  Bb/D
G |8------------------/10--------12-------|3------------------|-------------------|
D |----|----|----|----|----|----|----|----|----|----|----|----|----|----|----|----|
A |----|----|----|----|----|----|----|----|----|----|----|----|----|----|----|----|
Eb|-------------------|-------------------|-------------------|-------------------|


Intro (DLIBYH)
  Eb                                      F
G |-------------------|-------------------|-------------------|-------------------|
D |----|----|----|----|----|----|----|----|----|----|----|----|----|----|----|----|
A |----|----|----|----|----|----|----|----|----|----|----|----|----|----|----|----|
Eb|0----0----0----0---|0----0----0----0---|2----2----2----2---|2----2----2----2---|

  Dm                                      Eb
G |-------------------|-------------------|-------------------|-------------------|
D |----|----|----|----|----|----|----|----|----|----|----|----|----|----|----|----|
A |5---|5---|5---|5---|5---|5---|5---|5---|6---|6---|6---|6---|6---|6---|6---|6---|
Eb|-------------------|-------------------|-------------------|-------------------|

  Eb                                      Cm                  Eb
G |-------------------|-------------------|-------------------|-------------------|
D |----|----|----|----|----|----|----|----|----|----|----|----|----|----|----|----|
A |----|----|----|----|----|----|----|----|3---|3---|3---|3---/6---|6---|6---|6---|
Eb|0----0----0----0---|0----0----0----0---|-------------------|-------------------|


Verse 1 – The rhythm is a combination of lead guitar and drums (eighth and quarter notes) 
  Bb                  Dm                  Gm                  Eb
G |-------------------|-------------------|-------------------|-------------------|
D |----|----|----|----|----|----|----|----|----|----|----|----|----|----|----|----| x4
A |1-1-|--1-|1-1-|1---|5-5-|--5-|5-5-|5---|----|----|----|----|----|----|----|----|
Eb|-------------------|-------------------|4-4----4--4-4--4---|0-0----0--0-0--0---|








1st Chorus
  Eb                                      F
G |-------------------|-------------------|-------------------|-------------------|
D |----|----|----|----|----|----|----|----|----|----|----|----|----|----|----|----|
A |----|----|----|----|----|----|----|----|----|----|----|----|----|----|----|----|
Eb|0----0----0----0---|0----0----0----0---|2----2----2----2---|2----2----2----2---|

  Dm                                      Eb
G |-------------------|-------------------|-------------------|-------------------|
D |----|----|----|----|----|----|----|----|----|----|----|----|----|----|----|----|
A |5---|5---|5---|5---|5---|5---|5---|5---|6---|6---|6---|6---|6---|6---|6---|6---|
Eb|-------------------|-------------------|-------------------|-------------------|

  Eb                                      Cm                  Eb
G |-------------------|-------------------|-------------------|-------------------|
D |----|----|----|----|----|----|----|----|----|----|----|----|----|----|----|----|
A |----|----|----|----|----|----|----|----|3---|3---|3---|3---/6-6-|----|6---|----|
Eb|0----0----0----0---|0----0----0----0---|-------------------|-------------------|


2nd Verse

*Rest 4 bars* (But live, Guy plays this)
G |-------------------|-------------------|-------------------|-------------------|
D |----|----|----|----|----|----|----|----|----|----|----|----|----|----|----|----|
A |1---|----|----|----/5---|----|----|----|----|----|----|----|----|----|----|----|
Eb|-------------------|-------------------|4------------------|0------------------|

Verse Progression
  Bb                  Dm                  Gm                  Eb
G |-------------------|-------------------|-------------------|-------------------|
D |----|----|----|----|----|----|----|----|----|----|----|----|----|----|----|----| x2
A |1-1-|--1-|1-1-|1---|5-5-|--5-|5-5-|5---|----|----|----|----|----|----|----|----|
Eb|-------------------|-------------------|4-4----4--4-4--4---|0-0----0--0-0--0---|
(On We Crawl) (no bass on studio version, this is what is played live)
  Eb                                      
G |-------------------|-------------------|-------------------|-------------------|
D |----|----|----|----|----|----|----|----|----|----|----|----|----|----|----|----|
A |6---|6---|6---|6---|6---|6---|6---|6---|6---|6---|6---|6---|----|----|----|----|
Eb|-------------------|-------------------|-------------------|0----0----0----0---|

  Bb                  Dm                  Gm                  Eb
G |-------------------|-------------------|-------------------|-------------------|
D |----|----|----|----|----|----|----|----|----|----|----|----|----|----|----|----| 
A |1-1-|--1-|1-1-|1---|5-5-|--5-|5-5-|5---|----|----|----|----|----|----|----|----|
Eb|-------------------|-------------------|4-4----4--4-4--4---|0-0----0--0-0--0---|

(Slowly burning)
  Gm                                      Eb
G |-------------------|-------------------|-------------------|-------------------|
D |----|----|----|----|----|----|----|----|----|----|----|----|----|----|----|----| x2
A |----|----|----|----|----|----|----|----|6---|6---|6-6-|6-6-|6---|6---|6-6-|6-6-|
Eb|4----4----4-4--4-4-|4----4----4-4--4-4-|-------------------|-------------------|

(Through my veins is flowing)
  Bb                  Dm                  Gm                  Eb
G |-------------------|-------------------|-------------------|-------------------|
D |----|----|----|----|----|----|----|----|----|----|----|----|----|----|----|----| x2
A |1-1-|--1-|1-1-|1---|5-5-|--5-|5-5-|5---|----|----|----|----|----|----|----|----|
Eb|-------------------|-------------------|4-4----4--4-4--4---|0-0----0--0-0--0---|




2nd Chorus
(These two lines twice)
  Eb                                      F
G ||-------------------|-------------------|-------------------|-------------------|
D |:----|----|----|----|----|----|----|----|----|----|----|----|----|----|----|----|
A |:----|----|----|----|----|----|----|----|----|----|----|----|----|----|----|----|
Eb||0----0----0----0---|0----0----0----0---|2----2----2----2---|2----2----2----2---|

  Dm                                      Eb
G |-------------------|-------------------|-------------------|-------------------||
D |----|----|----|----|----|----|----|----|----|----|----|----|----|----|----|----:|
A |5---|5---|5---|5---|5---|5---|5---|5---|6---|6---|6---|6---|6---|6---|6---|6---:|
Eb|-------------------|-------------------|-------------------|-------------------||

(Over “come on baby”) 
  Eb                                      Cm                  Eb
G |-------------------|-------------------|-------------------|-------------------|
D |----|----|----|----|----|----|----|----|----|----|----|----|----|----|----|----|
A |----|----|----|----|----|----|----|----|3---|3---|3---|3---/6-6-|----|6---|----|
Eb|0----0----0----0---|0----0----0----0---|-------------------|-------------------|


Solo
  Bb                  Dm                  Gm                    Eb
G |-------------------|-------------------|---------------------|-------------------|
D |----|----|----|----|----|----|----|----|-----|----|-----|----|----|----|----|----| 
A |1-1-|--1-|1-1-|1---|5-5-|--5-|5-5-|5---|10-10|--10|10-10|10--|6-6-|--6-|6-6-|6---|
Eb|-------------------|-------------------|---------------------|-------------------|

  Bb                  Dm                  Gm                  Eb
G |-------------------|-------------------|-------------------|-------------------|
D |----|----|----|----|----|----|----|----|----|----|----|----|----|----|----|----| 
A |1-1-|--1-|1-1-|1---|5-5-|--5-|5-5-|5---|----|----|----|----|----|----|----|----|
Eb|-------------------|-------------------|4-4----4--4-4--4---|0-0----0--0-0--0---|0

Share this post


Link to post
Share on other sites

Here's Charlie Brown. One note, is I was trying to compose a guitar solo based on the alien noises but it's not great so you can ignore that. Otherwise, this is what Jonny plays:

 

Charlie Brown - Coldplay
Roadmap:
(Silent for the length of 1 main riff if there are noises)
Main Riff x1 (quiet)
Main Riff x2 (loud)
1st Verse Riff
Main Riff x1
2nd Verse Riff
Chorus
Main Riff x2
Bridge
Interlude x2 (quiet main riff on second time if not playing “noises”)
Main Riff x3 (loud)
Outro

Main Riff:

 Gm	 Eb	  Bb	
e|-----6---|--6------|--6------|-----6---|--6------|-----6---|--6------|
B|4s6------|6----3s4-|-------4-s3--------|3------3-|---------|3--------|
G|----|----|----|----|----|----|----|----|----|----|----|----|----|----|
D|----|----|----|----|----|----|----|----|----|----|----|----|----|----|
A|---------|---------|---------|---------|---------|---------|---------|
E|---------|---------|---------|---------|---------|---------|---------|
 (2) (3)
 Gm	 Eb		                        Cm
e|---------|---------|---------|---------|---------|---------|---------|---------|
B|-----3---|-----3---|-----3---|---------|-----3---|-----3---|-----3---|---------|
G|3h5-|----|3h5-|----|3h5-|--5-|-p3-|----|3h5-|----|3h5-|----|3h5-|--5-|-p3-|----|
D|----|----|----|----|----|----|----|--5-|----|----|----|----|----|----|----|----|
A|---------|---------|---------|---------|---------|---------|---------|---------|
E|---------|---------|---------|---------|---------|---------|---------|---------|

Verse 1 Riff

 Gm	 Eb      Bb
e|-------|-------|-------|-------|-------|-------|-------|
B|-------|-------|-------|-------|-------|-------|-------| 
G|---|---|---|---|---|---|---|---|---|---|---|---|---|---|
D|---|---|---|---|---|---|---|---|---|---|---|---|---|---|
A|-------|-------|6-6-6-6|-------|-------|-------|-------|
E|3-3-3-3|3-3-3-3|-------|6-6-6-6|6-6-6-6|6-6-6-6|6-6-6-6|

 Gm	 Eb		             Cm
e|-------|-------|-------|-------|--------------|-----------|-------|-------|
B|-------|-------|-------|-------|--------------|-----------|-------|-------|
G|---|---|---|---|---|---|---|---|-------|------|-----|-----|---|---|---|---|
D|---|---|---|---|---|---|---|---|-------|------|-----|-----|---|---|---|---|
A|-------|-------|6-6-6-6|--6-6-6|--------------|-----------|-------|-------|
E|3-3-3-3|3-3-3-3|---------------|6/11-11-11-11-|11-11-11-11|8-8-8-8|8-8-8-8|












Verse 2 Riff (In my scarecrow dreams)

 Gm              Eb      Bb
e|-------|-------|-------|-------|-------|-------|-------|
B|-------|-------|-------|-------|-------|-------|-------|
G|---|---|---|---|---|---|---|---|---|---|---|---|---|---|
D|---|---|---|---|---|---|---|---|---|---|---|---|---|---|
A|-------|-------|6-6-6-6|-------|-------|-------|-------|
E|3-3-3-3|3-3-3-3|-------|6-6-6-6|6-6-6-6|6-6-6-6|6-6-6-6|

 Gm	 Eb	                        Cm
e|-------|-------|-------|-------|--------------|-----------|-------|-------|
B|-------|-------|-------|-------|--------------|-----------|-------|-------|
G|---|---|---|---|---|---|---|---|-------|------|-----|-----|---|---|---|---|
D|---|---|---|---|---|---|---|---|-------|------|-----|-----|---|---|---|---|
A|-------|-------|6-6-6-6|6-6-6-6|--------------|-----------|-------|-------|
E|3-3-3-3|3-3-3-3|---------------|6/11-11-11-11-|11-11-11-11|8-8-8-8|8-8-8-8|

 Gm	 Eb      F
e|-------|-------|-------|-------|-------|-------|-------|
B|-------|-------|-------|-------|-------|-------|-------|
G|---|---|---|---|---|---|---|---|---|---|---|---|---|---|
D|---|---|---|---|---|---|---|---|---|---|---|---|---|---|
A|-------|-------|6-6-6-6|-------|-------|-------|-------|
E|3-3-3-3|3-3-3-3|-------|1-1-1-1|1-1-1-1|1-1-1-1|1-1-1-1|

Chorus

 Eb                                      F
e|3--------|---------|---------|---------|5--------|---------|---------|---------|
B|4--------|---------|---------|---------|6--------|---------|---------|---------|
G|3---|----|----|----|----|----|----|----|5---|----|----|----|----|----|----|----|
D|5---|----|----|----|----|----|----|----|7---|----|----|----|----|----|----|----|
A|---------|---------|---------|---------|---------|---------|---------|---------|
E|---------|---------|---------|---------|---------|---------|---------|---------|

 Eb                                      Eb
  du d (fast 16th note strum) 
e|3--------|---------|---------|-------33|3--------|---------|---------|---------|
B|4--------|---------|---------|-------44|4--------|---------|---------|---------|
G|3---|----|----|----|----|----|----|--33|3---|----|----|----|----|----|----|----|
D|5---|----|----|----|----|----|----|--55|5---|----|----|----|----|----|----|----|
A|---------|---------|---------|---------|---------|---------|---------|---------|
E|---------|---------|---------|---------|---------|---------|---------|---------|
















Bridge

 F	                              Eb                Bb
e|-----------|--------|-----------|--------|---------|--------|---------|--------|
B|--10--10---|10------|--10--10---|10------|--8--8---|8-------|--6--6---|6-------|
G|--10-|10---|10--|---|--10-|10---|10--|---|--8-|8---|8---|---|--7-|7---|7---|---| x2
D|--10-|10---|10--|---|--10-|10---|10--|---|--8-|8---|8---|---|--8-|8---|8---|---|
A|--8---8----|8-------|--8---8----|8-------|--6--6---|6-------|--8--8---|8-------|
E|-----------|--------|-----------|--------|---------|--------|--6--6---|6-------|

 F	                             Dm                  Eb	    du*
e|-----------|--------|-----------|--------|---------|---------|---------|----------|
B|--10--10---|10------|--10--10---|10------|-(10-10--|10)--10--|--8--8---|8----8--88|
G|--10-|10---|10--|---|--10-|10---|10--|---|--10|10--|10--|10--|--8-|8---|8---|8--88| 
D|--10-|10---|10--|---|--10-|10---|10--|---|--10|10--|10--|10--|--8-|8---|8---|8--88|
A|--8---8----|8-------|--8---8----|8-------|--x------|---------|--6--6---|6----6--66|
E|-----------|--------|-----------|--------|--10-10--|10---10--|---------|----------|

 Eb	                        du d    	
e|---------|---------|---------|---------|---------|---------|---------|-----------|
B|8~-------|---------|---------|-------88|8~-------|---------|---------|-----15--13|
G|8~--|----|----|----|----|----|----|--88|8~--|----|----|----|----|----|----|------| 
D|8~--|----|----|----|----|----|----|--88|8~--|----|----|----|----|----|----|------|
A|6~-------|---------|---------|-------66|6~-------|---------|---------|-----------|
E|---------|---------|---------|---------|---------|---------|---------|-----------|

Interlude

Tremolo pick this with this rhythm [use slides amap]. (Note the pickup above)
 Gm                     Eb          Bb
e|-----------------------|------------|-----------------------|-----------------------|
B|13---15--13-13---15--13|10---|10--11|11)--15--13-13---15--13|13---15--13-10---10--11|
G|----|------|----|------|-----|------|----|------|----|------|----|------|----|------| 
D|----|------|----|------|-----|------|----|------|----|------|----|------|----|------|
A|-----------------------|------------|-----------------------|-----------------------|
E|-----------------------|------------|-----------------------|-----------------------|

 Gm                     Eb                                           Cm
e|------------------------|-------------------------|---------------------|--------------------|
B|11---15--13-13-18-15--13|13-18-13-15-16--15-16-15-|16--15-11-------6-8-|16-15----------15--13|
G|----|------|-----|------|-----|-----|------|------|------|----|---|----|-----|----|----|-----|
D|----|------|-----|------|-----|-----|------|------|------|----|---|----|-----|----|----|-----|
A|------------------------|-------------------------|--------------------|---------------------|
E|------------------------|-------------------------|--------------------|---------------------|


















Outro

 Gm                  Eb	  F	
e|-----6---|--6------|--6------|-----6---|--6------|-----6---|--6------|
B|4s6------|6----3s4-|-------4-s3--------|3------3-|---------|3--------|
G|----|----|----|----|----|----|----|----|----|----|----|----|----|----|
D|----|----|----|----|----|----|----|----|----|----|----|----|----|----|
A|---------|---------|---------|---------|---------|---------|---------|
E|---------|---------|---------|---------|---------|---------|---------|

 Eb                                      Eb	 	Bb
  du d(slower 16th note strum) 
e|---------|---------|---------|---------|---------|---------|---------|-------|6
B|4--------|---------|4------3-|-------33|4--------|---------|4------3-|-------|3
G|3---|----|----|----|3---|--3-|----|--33|3---|----|----|----|3---|--3-|---|---|3
D|5---|----|----|----|5---|--3-|----|--33|5---|----|--3-h5---|5---|--3-|---|---|3
A|---------|---------|---------|---------|---------|---------|---------|-------|
E|---------|---------|---------|---------|---------|---------|---------|-------|

*barre the specified Eb chord in order to make the hammering/pulloffs in this last line easier.








































Charlie Brown – Bass 
Roadmap:
Quiet for 2 main riffs
Main Riff x2
Verse 1 Riff x2 (optional)
Main Riff x1
Verse 2 Riff x1 (optional)
Chorus
Main Riff x2
Bridge
Interlude x2
Main Riff x2
Outro

Main Riff Rhythm follows lead guitar
  G	 Eb        Bb
G |---------|---------|---------|---------|---------|---------|---------|
D |5-5--5-5-|5----5\1-|--1----1-|8-8--8-8-|8-8--8-8-|8-8--8-8-|8-8--8-8-|
A |----|----|----|----|----|----|----|----|----|----|----|----|----|----|
Eb|---------|---------|---------|---------|---------|---------|---------|

  G	 Eb				    Cm				
G |---------|---------|-----------|----------|--------|--------|-----------|-----------|
D |5-5--5---|5-5--5---/13-13-13-13|---13---13\1-1--1--|1-1--1--/10-10-10-10|---10------|
A |----|----|----|----|-----|-----|-----|----|----|---|----|---|-----|-----|-----|-----|
Eb|---------|---------|-----------|----------|--------|--------|-----------|-----------|
When the main riff transitions into a verse, you do this little slide where you let the G ring, then slide down to an Eb and fade out.

  G                   Eb        Bb
G |---------|---------|---------|---------|---------|---------|---------|
D |5~~~~~~--|\---|--~1~x---|----|----|----|----|----|----|----|----|----|
A |----|----|----|----|----|----|----|----|----|----|----|----|----|----|
Eb|---------|---------|---------|---------|---------|---------|---------|

[Optional] Verse Riff (played live by lead guitar, but could also be played on bass)
 G	Eb	Bb
G |---------|---------|8-8--8-8-|---------|---------|---------|---------|
D |5-5-|5-5-|5-5-|5-5-|----|----|8-8-|8-8-|8-8-|8-8-|8-8-|8-8-|8-8-|8-8-|
A |----|----|----|----|----|----|----|----|----|----|----|----|----|----|
Eb|---------|---------|---------|---------|---------|---------|---------|

 G	Eb				     Cm				
G |---------|---------|8-8--8-8-|8-8--8-8-|----------|-----------|-----------|-----------|
D |5-5-|5-5-|5-5-|5-5-|----|----|----|----8/13-|13-13|13-13|13-13|10-10|10-10|10-10|10-10|
A |----|----|----|----|----|----|----|----|----|-----|-----|-----|-----|-----|-----|-----|
Eb|---------|---------|---------|---------|----------|-----------|-----|-----|-----|-----|

[Optional] Verse 2 Riff (In my scarecrow dreams)
  G                    Eb        Bb
G |---------|---------|8-8--8-8-|---------|---------|---------|---------|
D |5-5-|5-5-|5-5-|5-5-|----|----|8-8-|8-8-|8-8-|8-8-|8-8-|8-8-|8-8-|8-8-|
A |----|----|----|----|----|----|----|----|----|----|----|----|----|----|
Eb|---------|---------|---------|---------|---------|---------|---------|

  G                    Eb	                                  Cm				
G |---------|---------|8-8--8-8-|8-8--8-8-|----------|-----------|-----------|-----------|
D |5-5-|5-5-|5-5-|5-5-|----|----|----|----8/13-|13-13|13-13|13-13|10-10|10-10|10-10|10-10|
A |----|----|----|----|----|----|----|----|----|-----|-----|-----|-----|-----|-----|-----|
Eb|---------|---------|---------|---------|----------|-----------|-----|-----|-----|-----|

  G                   Eb        F
G |---------|---------|---------|---------|---------|---------|---------|
D |5-5-|5-5-|5-5-|5-5-|1-1-|1-1-|3-3-|3-3-|3-3-|3-3-|3-3-|3-3-|3-3-|3-3-|
A |----|----|----|----|----|----|----|----|----|----|----|----|----|----|
Eb|---------|---------|---------|---------|---------|---------|---------|

Chorus
  Eb                                      F
G |---------|---------|---------|---------|---------|---------|---------|---------|
D |----|----|----|----|----|----|----|----|----|----|----|----|----|----|----|----|
A |----|----|----|----|----|----|----|----|----|----|----|----|----|----|----|----|
Eb|0--------|---------|---------|0--------/2--------|---------|---------|---------| 
  Eb                                      Eb
G |---------|---------|---------|---------|---------|---------|---------|---------|
D |----|----|----|----|----|----|----|----|----|----|----|----|----|----|----|13\-|
A |----|----|----|----|----|----|----|----|----|----|----|----|----|----|----|----|
Eb|0--------|---------|---------|---------/12-------|---------|---------|---------|

Bridge
  F                                       Eb                  Bb
G |---------|---------|---------|---------|---------|---------|---------|---------|
D |----|----|----|----|----|----|----|----|----|----|----|----|----|----|----|----| x2
A |--8-|8---|8---|8---|--8-|8---|8---|8---|--6-|6---|6---|6---|----|----|----|----|
Eb|---------|---------|---------|---------|---------|---------|--7--7---|7--------|

  F                                       Dm                  Eb
G |---------|---------|---------|---------|---------|---------|---------|---------|
D |----|----|----|----|----|----|----|----|----|----|----|----|----|----|----|----| 
A |8---|8---|8---|8---|8---|8---|8---|8---|5---|5---|5---|5---|6---|6---|6---|6---|
Eb|---------|---------|---------|---------|---------|---------|---------|---------|

  Eb                                      Eb
G |---------|---------|---------|---------|---------|---------|---------|---------|
D |----|----|----|----|----|----|----|----|----|----|----|----|----|----|----|----|
A |----|----|----|----|----|----|----|----|----|----|----|----|----|----|----|----|
Eb|0~-------|---------|---------|---------|0--------|---------|---------|---------|

Interlude

G |---------|---------|---------|---------|---------|---------|---------|
D |----|----|----|----|----|----|----|----|----|----|----|----|----|----|
A |----|----|----|--6-|----|----|----|----|----|----|----|----|----|----|
Eb|4--------|---------|---------|7--------|---------|---------|---------|

G |---------|---------|---------|---------|---------|---------|---------|---------|
D |----|----|----|----|----|----|----|----|----|----|----|----|----|----|----|----|
A |----|----|----|----|6---|----|----|----|----|----|----|----|3---|----|----|----|
Eb|4--------|---------|---------|---------|0--------|---------|---------|---------|

Outro

  G	 Eb        Bb
G |---------|---------|---------|---------|---------|---------|---------|
D |5-5--5-5-|5-5--5\1-|1-1--1-1-|3-3--3-3-|3-3--3-3-|3-3--3-3-|3-3--3-3-|
A |----|----|----|----|----|----|----|----|----|----|----|----|----|----|
Eb|---------|---------|---------|---------|---------|---------|---------|

  Eb                                                                              Bb
G |---------|---------|---------|---------|---------|---------|---------|---------|
D |1~--|----|----|----|----|----|----|----|----|----|----|----|----|----|----|----|
A |----|----|----|----|----|----|----|----|----|----|----|----|----|----|----|----|1~
Eb|---------|---------|---------|---------|---------|---------|---------|---------|

Share this post


Link to post
Share on other sites

DLIBYH - drums

 

DLIBYH, Drums
Intro
  Eb                              F
  Dm                              Eb
HH|---------------|---------------|---------------|---------------|
C1|L---L---L---L--|L---L---L---L--|L---L---L---L--|L---L---L---L--|
C2|R--------------|---------------|R--------------|---------------| x2
RC|--R|R-R|R-R|R-R|R-R|R-R|R-R|R-R|--R|R-R|R-R|R-R|R-R|R-R|R-R|R-R|
S |---|---|---|---|---|---|---|---|---|---|---|---|---|---|---|---|
B |x---x---x---x--|x---x---x---x--|x---x---x---x--|x---x---x---x--|

  Eb              Cm              Eb
HH|---------------|---------------|---------------|-----------------|
C1|L-L-L-L-L-L-L-L|L-L-L-L-L-L-L-L|L-L-L-L-L-L-L-L|L-L-L-L-L--------|
C2|---------------|---------------|---------------|-----------------|
RC|R-R|R-R|R-R|R-R|R-R|R-R|R-R|R-R|R-R|R-R|R-R|R-R|R-R|R-R|R-RL|RLRL|
S |---|---|---|---|---|---|---|---|---|---|---|---|---|---|----|----|
B |x---x---x---x--|x---x---x---x--|x---x---x---x--|x---x---x----x---|

Verse – 16th note high hat, the high hat opening only shows up on the live version (bold)
  Bb                  Dm                  Gm                  Eb           
HH|RLRL--LRL-RL-L-RLRL|RLRL--LRL-RL-L-RLRL|RLRL--LRL-RL-L-RLRL|RLRL--LRL-RL-L-RLRL|
C1|-------------------|-------------------|-------------------|-------------------|
C2|-------------------|-------------------|-------------------|-------------------| x4
S |----|R---|--R-|----|----|R---|--R-|----|----|R---|--R-|----|----|R---|--R-|----|
B |x----x----x----x---|x----x----x----x---|x----x----x----x---|x----x----x----x---|

In the live version, Will does a snare fill before the chorus:
  Bb                  Dm                  Gm                  Eb           
HH|RLRL--LRL-RL-L-RLRL|RLRL--LRL-RL-L-RLRL|RLRL--LRL-RL-L-RLRL|RLRL--LRL-RL-------|
C1|-------------------|-------------------|-------------------|-------------------|
C2|-------------------|-------------------|-------------------|-------------------| 
S |----|R---|--R-|----|----|R---|--R-|----|----|R---|--R-|----|----|R---|--RL|RLRL|
B |x----x----x----x---|x----x----x----x---|x----x----x----x---|x----x----x----x---|

1st Chorus 
  Eb                              F
  Dm                              Eb
HH|---------------|---------------|---------------|---------------|
C1|L---L---L---L--|L---L---L---L--|L---L---L---L--|L---L---L---L--|
C2|R--------------|---------------|R--------------|---------------| x2
RC|--R|R-R|R-R|R-R|R-R|R-R|R-R|R-R|--R|R-R|R-R|R-R|R-R|R-R|R-R|R-R|
S |---|---|---|---|---|---|---|---|---|---|---|---|---|---|---|---|
B |x---x---x---x--|x---x---x---x--|x---x---x---x--|x---x---x---x--|

  Eb              Cm              Eb
HH|---------------|---------------|---------------|-----------------|
C1|L-L-L-L-L-L-L-L|L-L-L-L-L-L-L-L|L-L-L-L-L-L-L-L|L-L-L-L-L--------|
C2|---------------|---------------|---------------|-----------------|
RC|R-R|R-R|R-R|R-R|R-R|R-R|R-R|R-R|R-R|R-R|R-R|R-R|R-R|R-R|R-RL|RLRL|
S |---|---|---|---|---|---|---|---|---|---|---|---|---|---|----|----|
B |x---x---x---x--|x---x---x---x--|x---x---x---x--|x---x---x----x---|

Bridge
  Bb                  Dm                  Gm                  Eb           
HH|RLRL-RLRL-RLRL-RLRL|RLRL-RLRL-RLRL-RLRL|RLRL-RLRL-RLRL-RLRL|RLRL-RLRL-RLRL-RL--|
C1|-------------------|-------------------|-------------------|-------------------|
C2|-------------------|-------------------|-------------------|-------------------| 
S |----|----|----|----|----|----|----|----|----|----|----|----|----|----|----|--RL|
B |x----x----x----x---|x----x----x----x---|x----x----x----x---|x----x----x----x---|




2nd Verse
  Bb                  Dm                  Gm                  Eb           
HH|RLRL--LRL-RL-L-RLRL|RLRL--LRL-RL-L-RLRL|RLRL--LRL-RL-L-RLRL|RLRL--LRL-RL-L-RLRL|
C1|-------------------|-------------------|-------------------|-------------------|
C2|-------------------|-------------------|-------------------|-------------------| x2 
S |----|R---|--R-|----|----|R---|--R-|----|----|R---|--R-|----|----|R---|--R-|----|
B |x----x----x----x---|x----x----x----x---|x----x----x----x---|x----x----x----x---|

On We Crawl… loud open high hat
  Eb       
HH|RLRL-RLRL-RLRL-RLRL|RLRL-RLRL-RLRL-RLRL|RLRL-RLRL-RLRL-RLRL|RLRL-RLRL-RLRL-RL--|
C1|-------------------|-------------------|-------------------|-------------------|
C2|-------------------|-------------------|-------------------|-------------------| 
S |----|----|----|----|----|----|----|----|----|----|----|----|----|----|----|--RL|
B |x----x----x----x---|x----x----x----x---|x----x----x----x---|x----x----x----x---|

  Bb                  Dm                  Gm                  Eb           
HH|RLRL--LRL-RL-L-RLRL|RLRL--LRL-RL-L-RLRL|RLRL--LRL-RL-L-RLRL|RLRL--LRL-RL-L-RLRL|
C1|-------------------|-------------------|-------------------|-------------------|
C2|-------------------|-------------------|-------------------|-------------------| 
S |----|R---|--R-|----|----|R---|--R-|----|----|R---|--R-|----|----|R---|--R-|----|
B |x----x----x----x---|x----x----x----x---|x----x----x----x---|x----x----x----x---|
Slowly…
  Gm                                      Eb
HH|RLRL-RLRL-RLRL-RLRL|RLRL-RLRL-RLRL-RLRL|RLRL-RLRL-RLRL-RLRL|RLRL-RLRL-RLRL-RL--|
C1|-------------------|-------------------|-------------------|-------------------|
C2|-------------------|-------------------|-------------------|-------------------| x2
S |----|R---|--R-|--R-|----|R---|--R-|--R-|----|R---|--R-|--R-|----|R---|--R-|--R-|
B |x----x----x----x---|x----x----x----x---|x----x----x----x---|x----x----x----x---|

Through my veins is flowing…
  Bb                  Dm                  Gm                  Eb           
HH|RLRL--LRL-RL-L-RLRL|RLRL--LRL-RL-L-RLRL|RLRL--LRL-RL-L-RLRL|RLRL--LRL-RL-L-RLRL|
C1|-------------------|-------------------|-------------------|-------------------|
C2|-------------------|-------------------|-------------------|-------------------| 
S |----|R---|--R-|----|----|R---|--R-|----|----|R---|--R-|----|----|R---|--R-|----|
B |x----x----x----x---|x----x----x----x---|x----x----x----x---|x----x----x----x---|

2nd Chorus
  Eb                              F
  Dm                              Eb
HH|---------------|---------------|---------------|---------------|
C1|L---L---L---L--|L---L---L---L--|L---L---L---L--|L---L---L---L--|
C2|R--------------|---------------|R--------------|---------------| x4
RC|--R|R-R|R-R|R-R|R-R|R-R|R-R|R-R|--R|R-R|R-R|R-R|R-R|R-R|R-R|R-R|
S |---|---|---|---|---|---|---|---|---|---|---|---|---|---|---|---|
B |x---x---x---x--|x---x---x---x--|x---x---x---x--|x---x---x---x--|

  Eb              Cm              Eb
HH|---------------|---------------|---------------|-----------------|
C1|L-L-L-L-L-L-L-L|L-L-L-L-L-L-L-L|L-L-L-L-L-L-L-L|L-L-L-L-L--------|
C2|---------------|---------------|---------------|-----------------|
RC|R-R|R-R|R-R|R-R|R-R|R-R|R-R|R-R|R-R|R-R|R-R|R-R|R-R|R-R|R-RL|RLRL|
S |---|---|---|---|---|---|---|---|---|---|---|---|---|---|----|----|
B |x---x---x---x--|x---x---x---x--|x---x---x---x--|x---x---x----x---|

Solo
  Bb                  Dm                  Gm                  Eb           
HH|RLRL-RLRL-RLRL-RLRL|RLRL-RLRL-RLRL-RLRL|RLRL-RLRL-RLRL-RLRL|RLRL-RLRL-RL-------|
C1|-------------------|-------------------|-------------------|-------------------|
C2|-------------------|-------------------|-------------------|-------------------| x2
S |----|R---|--R-|--R-|----|R---|--R-|--R-|----|R---|--R-|--R-|----|R---|--RL|RLRL|
B |x----x----x----x---|x----x----x----x---|x----x----x----x---|x----x----x----x---|

Share this post


Link to post
Share on other sites

ETIAW: lead guitar, bass, and drums

ETIAW - Coldplay
Roadmap:
Quiet until “heaven is in sight”
Main Riff x4 [not shown]
Verse Riff x6 (Over 2nd verse and first part of 1st chorus)
Chorus Riff
Main Riff x4 
Verse Riff x2 with last four beats dropped (Bridge)
Main Riff x4
Verse Riff x6 (singing starts on 3rd)

Keyboard Rhythm: This rhythm is the key to the whole song, so it’s very much worth knowing…
|1 + |2 + |3 + |4 + |
|x--x|--x-|--x-|-x--|

Main Riff (rhythm is painfully spelled out, sorry) 
 A   
 1    -    +    -     2    -    +    -     3    -    +    -     4    -    +    -     
e|17---p12-------12---------12------------------------12---------12h14p12------------|
B|-------------------------------14----------------------------------------14--------|
G|--------------------|--------------------|--------------------|--------------------|
D|--------------------|--------------------|--------------------|--------------------|
A|-----------------------------------------------------------------------------------|
E|-----------------------------------------------------------------------------------|

 D   
 1    -    +    -     2    -    +    -     3    -    +    -     4    -    +    -     
e|17---p12-------12---------12---14---------12h14p12-------------12--------14--------|
B|----------------------------------------------------14-----------------------------|
G|--------------------|--------------------|--------------------|--------------------|
D|--------------------|--------------------|--------------------|--------------------|
A|-----------------------------------------------------------------------------------|
E|-----------------------------------------------------------------------------------|

The rhythm looks like this, broken down to 32nd notes.
A                                   D
1 - + - |2 - + - |3 - + - |4 - + - |1 - + - |2 - + - |3 - + - |4 - + - |
|X-x---X-|--x-X---|----X---|xxX-x---|X-x---X-|--x-X---|xxx-x---|x---x---|

Verse Riff
This should come out as 16th notes (only downstrums are shown). 
 Dsus2                                         A/C#
 (F#m7)                                        (D)
e|-----------------------|-----------------------|-----------------------|-----------------------|
B|10-10-10-10-10-10-10-10|10-10-10-10-10-10-10-10|10-10-10-10-10-10-10-10|12-12-12-12-9--9--9--9-|
G|9--9-|9--9-|9--9-|9--9-|9--9-|9--9-|9--9-|9--9-|9--9-|9--9-|9--9-|9--9-|9--9-|9--9-|9--9-|9--9-|
D|-----|-----|-----|-----|-----|-----|-----|-----|-----|-----|-----|-----|-----|-----|-----|-----|
A|-----------------------|-----------------------|-----------------------|-----------------------|
E|-----------------------|-----------------------|-----------------------|-----------------------|

Chorus Riff
Maintain the same 16th strumming; but follow the keyboard rhythm as follows:
 Dsus2                                     A/C#
e|---------------------|-------------------|-------------------|-------------------|
B|---------------------|-------------------|-------------------|-------------------|
G|7b9--9|--9-|--9-|-9--|9--9|--9-|--9-|-9--|4--4|-b6-|--6-|-6--|6--6|--6-|--6-|-6--|
D|------|----|----|----|----|----|----|----|----|----|----|----|----|----|----|----|
A|---------------------|-------------------|-------------------|-------------------|
E|---------------------|-------------------|-------------------|-------------------|

 F#m7                                      D
e|---------------------|-------------------|--------------------------|------------------------|
B|---------------------|-------------------|--------------------------|------------------------|
G|7b9--9|--9-|--9-|-9--|9--9|--9-|--9-|-9--|9b11--11|--11-|--11-|-11--|11--11|--11-|--11-|-11--|
D|------|----|----|----|----|----|----|----|--------|-----|-----|-----|------|-----|-----|-----|
A|---------------------|-------------------|--------------------------|------------------------|
E|---------------------|-------------------|--------------------------|------------------------|
Every Teardrop is a Waterfall – Coldplay, Bass
Roadmap
Verse 2
Chorus
Main Riff 
Bridge
Main Riff
Outro

Verse 2
Dsus2                                   A/C#
G|-------------------|-------------------|-------------------|-------------------|
D|----|----|----|----|----|----|----|----|----|----|----|----|----|----|----|----| x2
A|5---|----|----|----|----|----|----|----|4---|----|----|----|----|----|----|----|
E|-------------------|-------------------|-------------------|-------------------|

“Maybe I’m in the black..”
 Dsus2                                   A/C#
G|-------------------|-------------------|-------------------|-------------------|
D|----|----|----|----|----|----|----|----|----|----|----|----|----|----|----|----| 
A|5---|----|----|----|----|----|----|----|4---|----|----|----|----|----|----|----|
E|-------------------|-------------------|-------------------|-------------------|

 F#m                                     A/C#
G|-------------------|-------------------|-------------------|-------------------|
D|----|----|----|----|----|----|----|----|----|----|----|----|----|----|----|----| 
A|----|----|----|----|----|----|----|----|----|----|----|----|----|----|----|----|
E|2------------------|-------------------|5------------------|-------------------|

Chorus (Guy actually plays quarter notes here, but I wrote an alternate version where the follows the keyboard part – notes are the same though)…play these two lines twice:
 Dsus2                                   A/C#
G|-------------------|-------------------|-------------------|-------------------|
D|----|----|----|----|----|----|----|----|----|----|----|----|----|----|----|----|
A|5--5|--5-|--5-|-5--|5--5|--5-|--5-|-5--|4--4|--4-|--4-|-4--|4--4|--4-|--4-|-4--|
E|-------------------|-------------------|-------------------|-------------------|

 F#m7                                    D
G|-------------------|-------------------|-------------------|-------------------|
D|----|----|----|----|----|----|----|----|----|----|----|----|----|----|----|----|
A|----|----|----|----|----|----|----|----|5--5|--5-|--5-|-5--|5--5|--5-|--5-|-5--|
E|2--2---2----2---2--|2--2---2----2---2--|-------------------|-------------------|

Main Riff – Played over Jonny’s riff
 A                   D
G|-------------------|-------------------|
D|----|----|----|----|----|----|----|----| x4
A|----|----|----|----|5---|5---|5---|5---|
E|5----5----5----5---|-------------------|

Here’s my adaptation of it:
 A                   D
G|-------------------|-------------------|
D|----|----|----|----|----|----|----|----| x4
A|----|----|----|--4-|5---|5---|5-5-|4---|
E|5----5----5-5--7---|-----------------7-|

Bridge: You just play the first note and that’s it.
 E                                       Dsus2
G|-------------------|-------------------|-------------------|-------------------|
D|----|----|----|----|----|----|----|----|----|----|----|----|----|----|----|----|
A|7~--|----|----|----|----|----|----|----|----|----|----|----|----|----|----|----|
E|-------------------|-------------------|-------------------|-------------------|
 A/C#m                                   Dsus2
G|-------------------|-------------------|-------------------|-------------------|
D|----|----|----|----|----|----|----|----|----|----|----|----|----|----|----|----|
A|----|----|----|----|----|----|----|----|----|----|----|----|----|----|----|----|
E|-------------------|-------------------|-------------------|-------------------|

Outro 
Studio version
 D                                       A/C#
G|-------------------|-------------------|-------------------|-------------------|
D|----|----|----|----|----|----|----|----|----|----|----|----|----|----|----|----| x4
A|5---|----|----|----|5---|----|----|----|----|4---|----|----|----|4---|----|----|
E|-----2-5----2--5-2-|-----2-5----2--5-2-|5------5----2--5-2-|5------5----2--0-2-|

 D                                       A/C#
G|-------------------|-------------------|-------------------|-------------------|
D|----|----|----|----|----|----|----|----|----|----|----|----|----|----|----|----| x2
A|5---|----|----|----|5---|----|----|----|4---|----|----|----|4---|----|----|----|
E|-----2-5----2--5-2-|-----2-5----2--5-2-|-----2-5----2--5-2-|-----2-5----2--0-2-|

Live version
 D                                       A/C#
G|-------------------|-------------------|-------------------|-------------------|
D|----|----|----|----|----|----|----|----|----|----|----|----|----|----|----|----| x6
A|5---|----|----|----|5---|----|----|----|----|4---|----|----|----|4---|----|----|
E|-----2-5----2--5-2-|-----2-5----2--5-2-|5------5----2--5-2-|5------5----2--0-2-|

On the last note of the outro, Guy hits an A (5th fret, E string) and slides down to make the note decay abruptly.






ETIAW – Coldplay, Drums
Roadmap:
Verse 2
Chorus
Main Riff
Bridge
Main Riff
Outro

Verse 2
  Dsus2                           A/C#
  (F#m)                           (D)
HH|---------------|---------------|---------------|---------------|
C1|---------------|---------------|---------------|---------------|
C2|---------------|---------------|---------------|---------------| x4
RC|---|---|---|---|---|---|---|---|---|---|---|---|---|---|---|---|
S |---|---|---|---|---|---|---|---|---|---|---|---|---|---|---|---|
B |x---x---x---x--|x---x---x---x--|x---x---x---x--|x---x---x---x--|

Chorus – I’m going to be honest, I don’t truly understand how Will gets the high hat effect that he does, so just remember the keyboard rhythm and emphasize notes as indicated.

HH|RLRL-RLRL-RLRL-RLRL|RLRL-RLRL-RLRL-RLRL|RLRL-RLRL-RLRL-RLRL|RLRL-RLRL-RLRL-RLRL|
C1|-------------------|-------------------|-------------------|-------------------| 
C2|-------------------|-------------------|-------------------|-------------------| x2
RC|----|----|----|----|----|----|----|----|----|----|----|----|----|----|----|----|
S |----|----|----|----|----|----|----|----|----|----|----|----|----|----|----|----|
B |x----x----x----x---|x----x----x----x---|x----x----x----x---|x----x----x----x---|

HH|-LRL-RLRL-RLRL-RLRL|RLRL-RLRL-RLRL-RLRL|RLRL-RLRL-RLRL-RLRL|RLRL-RLRL-RLRL-RLRL|
C1|R------------------|-------------------|-------------------|-------------------| 
C2|-------------------|-------------------|-------------------|-------------------| 
RC|----|----|----|----|----|----|----|----|----|----|----|----|----|----|----|----|
S |----|----|----|----|----|----|----|----|----|----|----|----|----|----|----|----|
B |x----x----x----x---|x----x----x----x---|x----x----x----x---|x----x----x----x---|

Main Riff   
HH|-LRL-RLRL-RLRL-RLRL|
C1|R------------------| 
C2|-------------------| x8
RC|----|----|----|----|
S |----|----|----|----|
B |x----x----x----x---|

Bridge 
HH|---------------|---------------|---------------|---------------|
C1|R--------------|---------------|---------------|---------------|
C2|---------------|---------------|---------------|---------------|
RC|---|---|---|---|---|---|---|---|---|---|---|---|---|---|---|---|
S |---|---|---|---|---|---|---|---|---|---|---|---|---|---|---|---|
B |x--------------|---------------|---------------|---------------|

HH|---------------|---------------|---------------|---------------|
C1|---------------|---------------|---------------|---------------|
C2|---------------|---------------|---------------|---------------|
RC|---|---|---|---|---|---|---|---|---|---|---|---|---|---|---|---|
S |---|---|---|---|---|---|---|---|---|---|---|---|---|---|---|---|
B |---------------|---------------|---------------|---------------|









Main Riff
  A                   D                   A                   D
HH|-LRL--LRL--LRL--LRL|-LRL--LRL--LRL--LRL|-LRL--LRL--LRL--LRL|-LRL--LRL--LRL--LRL|
C1|R----R----R----R---|R----R----R----R---|R----R----R----R---|R----R----R----R---|
C2|-------------------|-------------------|-------------------|-------------------| 
RC|----|----|----|----|----|----|----|----|----|----|----|----|----|----|----|----|
S |----|----|----|----|----|----|----|----|----|----|----|----|----|----|----|----|
B |x----x----x----x---|x----x----x----x---|x----x----x----x---|x----x----x----x---|

  A                   D                   A                   D
HH|-LRL--LRL--LRL--LRL|-LRL--LRL--LRL--LRL|-LRL--LRL--LRL--LRL|-LRL--LRL--L-------|
C1|R----R----R----R---|R----R----R----R---|R----R----R----R---|R----R----R--------|
C2|-------------------|-------------------|-------------------|-------------------| 
RC|----|----|----|----|----|----|----|----|----|----|----|----|----|----|----|----|
S |----|----|----|----|----|----|----|----|----|----|----|----|----|----|--RL|RLRL|
B |x----x----x----x---|x----x----x----x---|x----x----x----x---|x----x----x----x---|



Outro – the key to this part is that the hands are constantly moving at a 16th note rate but just hit different things at different times.
  Dsus2                                   A/C#
HH|-LR--RL-L-RLRL--LRL|-LR--RL-L-RLRL--LRL|-LR--RL-L-RLRL--LRL|-LR--RL-L-RLRL--LRL|
C1|R------------------|R------------------|R------------------|R------------------|
C2|-------------------|-------------------|-------------------|-------------------|
RC|----|----|----|----|----|----|----|----|----|----|----|----|----|----|----|----|
S |---L|--R-|----|R---|---L|--R-|----|R---|---L|--R-|----|R---|---L|--R-|----|R---|
B |x----x----x----x---|x----x----x----x---|x----x----x----x---|x----x----x----x---|

  Dsus2                                   A/C#
HH|-LR--RL-L-RLRL--LRL|-LR--RL-L-RLRL--LRL|-LR--RL-L-RLRL--LRL|-LR--RL-L-RL-------|
C1|R------------------|R------------------|R------------------|R------------------|
C2|-------------------|-------------------|-------------------|-------------------|
RC|----|----|----|----|----|----|----|----|----|----|----|----|----|----|----|----|
S |---L|--R-|----|R---|---L|--R-|----|R---|---L|--R-|----|R---|---L|--R-|--RL|RLRL|
B |x----x----x----x---|x----x----x----x---|x----x----x----x---|x----x----x----x---|

Singing Starts
  Dsus2                                   A/C#
HH|-LR--RL-L-RLRL--LRL|-LR--RL-L-RLRL--LRL|-LR--RL-L-RLRL--LRL|-LR--RL-L-RL-------|
C1|R------------------|R------------------|R------------------|R------------------|
C2|-------------------|-------------------|-------------------|-------------------| x4
RC|----|----|----|----|----|----|----|----|----|----|----|----|----|----|----|----|
S |---L|--R-|----|R---|---L|--R-|----|R---|---L|--R-|----|R---|---L|--R-|--RL|RLRL|
B |x----x----x----x---|x----x----x----x---|x----x----x----x---|x----x----x----x---|

End
  Dsus2                                   A/C#
HH|-LR--RL-L-RLRL--LRL|-LR--RL-L-RLRL--LRL|-LR--RL-L-RLRL--LRL|-LR--RL-L-RL-------|
C1|R------------------|R------------------|R------------------|R------------------|
C2|-------------------|-------------------|-------------------|-------------------|
RC|----|----|----|----|----|----|----|----|----|----|----|----|----|----|----|----|
S |---L|--R-|----|R---|---L|--R-|----|R---|---L|--R-|----|R---|---L|--R-|--RL|RLRL|
B |x----x----x----x---|x----x----x----x---|x----x----x----x---|x----x----x----x---|

Share this post


Link to post
Share on other sites

I don't remember if I posted TKC in here, but here's an updated version of Till Kingdom Come:

 

Till Kingdom Come - Coldplay
Verse 1 
Prechorus
1st Main Riff
Verse 2
Chorus (1 say you’ll wait)
Verse 3 (Note X&Y tour version deviates here)
Prechorus
Chorus
Outro (3 say you’ll waits)

Chris's chords. 
C - 	030010			C/D - 050030			C/E - 070050		
C/F - 	080060			C/G - 0,10,0,0,8,0		C/B -	020000	
CHORUS CHORDS:
Am - 	9,12,0,0,10,0 		Fmaj7 - 5,8,0,0,6,0 	
G7 -	7,8,0,0,6,0			G - 	7,10,0,0,8,0 	
Standard tuning chords:
C – x32010				Am - 	x02210	 		Fmaj7 – 133210 or 133211 	
G7 -	3x0001				G - 	320033

VERSE (Chris):
Bolded spots are where C chords may be added for punctuation. 
          Still my heart......................and |hold my  tongue
 C         C    C/D  C/E                         C/E  C/D  C                      	
e|0--------|0----0---|0--------|---------|---------|0----0---|0-------|-------|
B|1--------|1----3---|5--------|---------|---------|5----3---|1-------|-------|
G|0---|----|0---|0---|0---|----|----|----|----|----|0---|0---|0---|---|---|---|
C|0---|----|0---|0---|0---|----|----|----|----|----|0---|0---|0---|---|---|---|
A|3--------|3----5---|7--------|---------|---------|7----5---|3-------|-------|
C|0--------|0----0---|0--------|---------|---------|0----0---|0-------|-------|
                I've ne -ver  felt this way be-  fore
 C                   C/G  C/E   C/F C/D  C/E  C/B  C        (C)     (C)     (C)
e|0--------|---------|0----0---|0----0---|0----0---|0-------|-------|-------|-------|
B|1--------|---------|8----5---|6----3---|5----0---|1-------|-------|-------|-------|
G|0---|----|----|----|0---|0---|0---|0---|0---|0---|0---|---|---|---|---|---|---|---|
C|0---|----|----|----|0---|0---|0---|0---|0---|0---|0---|---|---|---|---|---|---|---|
A|3--------|---------|10---7---|8----5---|7----2---|3-------|-------|-------|-------|
C|0--------|---------|0----0---|0----0---|0----0---|0-------|-------|-------|-------|

Last Line of Verse (MX Tour) – Jonny plays this at the end of each verse.
 C/G  C/E   C/F  C/D  C/E  C/B  C
e|---------|---------|---------|---------|---------|---------|---------|
B|---------|---------|---------|---------|---------|---------|---------|
G|----|----|----|----|----|----|----|----|----|----|----|----|----|----|
D|----|----|----|----|----|----|----|----|----|----|----|----|----|----|
A|---------|---------|---------|---------|---------|---------|---------|
E|15---12--|13---10--|12---7---|8--------|---------|---------|---------|

PRECHORUS "the wheels just keep on turning..." (Rhythm follows the main strum pattern) 
 Am              Fmaj7           C               C
e|---------------|---------------|---------------|---------------|
B|---10--|----10-|---10--|----10-|----8--|-----8-|----8--|-----8-|
G|-------|-------|-------|-------|-------|-------|-------|-------|  x2
D|10-----|--10---|10-----|--10---|10-----|--10---|10-----|--10---|
A|---------------|---------------|---------------|---------------|
E|---------------|---------------|---------------|---------------|

 F               G7              C               C
e|---------------|---------------|---------------|---------------|
B|---10--|----10-|---12--|----12-|---13--|----13-|---13--|----13-|
G|-------|-------|-------|-------|-------|-------|-------|-------|
D|10-----|--10---|12-----|--12---|14-----|--14---|14-----|--14---|
A|---------------|---------------|---------------|---------------|
E|---------------|---------------|---------------|---------------|
1st Main Riff
 C               C    C/D  C/E                      C/E-C/D    C/D-C
e|---------------|---------|--------|-------|-------|----------|-----------|-------|
B|---13--|----13-|---------|--------|-------|-------|----------|-----------|-------|
G|-------|-------|----|----|----|---|---|---|---|---|------|---|------|----|---|---|
E|14-----|--14---|10--|12--|14~-|---|---|---|---|---|14\12-|---|12\10~|----|---|---|
A|---------------|x----x---|x-------|-------|-------|----------|-----------|-------|
E|---------------|8----10--|12~-----|-------|-------|12\10-----|10\8~------|-------|

Chorus (with pickup in MX tour) 
       F                                       C
E|----||--13~~---|---------|---------|---------|--12~~---|---------|---------|---------||
B|----||---------|---------|---------|---------|---------|---------|---------|---------||
G|--12/|14--|----|----|----|----|----|----|----|12--|----|----|----|----|----|----|--12/| x2
D|----||----|----|----|----|----|----|----|----|----|----|----|----|----|----|----|----|| 
A|----||---------|---------|---------|---------|---------|---------|---------|---------||
E|----||---------|---------|---------|---------|---------|---------|---------|---------||	  

 F                       	   Gsus4	 Am
e|---13~~~---|---------|--------|---15~~~---|---17~~~---|---------|---------|---------|
B|-----------|---------|--------|-----------|-----------|---------|---------|---------|
G|14----|----|----|----|----|---/16----|----|17----|----|----|----|----|----|----|----|
D|------|----|----|----|----|---|------|----|------|----|----|----|----|----|----|----|
A|-----------|---------|--------|-----------|-----------|---------|---------|---------|
E|-----------|---------|--------|-----------|-----------|---------|---------|---------|

(Say you’ll wait):
 G                         G7                        C
e|---12~~~-----|-----------|---10~~~-----|-----------|---8~~~----|---------|
B|-------------|-----------|-------------|-----------|-----------|---------|
G|12----|------|-----|-----|12----|------|-----|-----|9-----|----|----|----|
D|------|------|-----|-----|------|------|-----|-----|------|----|----|----|
A|-------------|-----------|-------------|-----------|-----------|---------|
E|-------------|-----------|-------------|-----------|-----------|---------|

2nd Main Riff
 C       C    C/D  C/E                       C/E-C/D     C/D-C
e|-------|8----10--|12-------|-------|-------|12\10------|10\8------|-------|
B|---|---|---------|---------|-------|-------|-----------|-----|----|-------|
G|---|---|9---|10--|12--|----|---|---|---|---|12\10-|----|10\9-|----|---|---|
C|---|---|----|----|----|----|---|---|---|---|------|----|-----|----|---|---|
A|-------|----|----|---------|-------|-------|-----------|----------|-------|
C|-------|---------|---------|-------|-------|-----------|----------|-------|8





















X&Y riff on top of the third verse: Same rhythm as the main strum.

e|8-----------8--|
B|---12--|-------|
G|-------|-----12| x  a lot of times
D|-------|-------|
A|---------------|
E|---------------|

X&Y Chorus – the X&Y tour, Jonny plays the aforementioned riff over the chorus until the ascending part and then he plays this:
 Am7                      
e|12--------12---|12--------12---|12--------12---|12--------12---|
B|---13--|-------|---13--|-------|---13--|-------|---13--|-------|
G|-------|----14-|-------|----14-|-------|----14-|-------|----14-|
D|---------------|---------------|---------------|---------------|
A|---------------|---------------|---------------|---------------|
E|---------------|---------------|---------------|---------------|

 G                               G7             
e|---12-------12-|---12-------12-|---10-------10-|---10-------10-|
B|-------|-------|-------|-------|-------|-------|-------|-------|
G|12-----|--12---|12-----|--12---|10-----|--10---|10-----|--10---|
D|---------------|---------------|---------------|---------------|
A|---------------|---------------|---------------|---------------|
E|---------------|---------------|---------------|---------------|

 C             
e|---8-------8-|---8-------8-|---8-------8-|---8-------8-|
B|------|------|------|------|------|------|------|------|
G|9-----|--9---|10----|--10--|9-----|--9---|9-----|--9---|
D|-------------|-------------|-------------|-------------|
A|-------------|-------------|-------------|-------------|
E|-------------|-------------|-------------|-------------|






























TKC – Coldplay, Bass

During the verse, you might hit a C on the bolded chords for emphasis (as the keyboard would)

Main riff:
   C	 C
G|---------|---------|---------|---------|---------|---------|---------|---------|
D|----|----|----|----|----|----|----|----|----|----|----|----|----|----|----|----|
A|----|----|----|----|3---|----|----|----|----|----|----|----|3---|----|----|----|
E|---------|---------|---------|---------|---------|---------|---------|---------|

Last line of each verse:
C
     I’ve never felt this way be-fore   	 
G|---------|---------|---------|---------|---------|---------|---------|-------|-------|
D|----|----|----|----|----|----|----|----|----|----|----|----|----|----|---|---|---|---|
A|----|----|----|----|----|----|----|----|----|----|3---|----|----|----|---|---|---|---|
E|---------|---------|---------|---------|---------|---------|---------|-------|-------|

Prechorus

 Am	F	C	 
G|2--------|---------|---------|---------|
D|----|----|3---|----|----|----|----|----| x3
A|----|----|----|----|3---|----|----|----|
E|---------|---------|---------|---------|

 F	G	C 
G|---------|---------|---------|---------|
D|3---|----|5---|----|----|----|----|----| 
A|----|----|----|----|3---|----|----|----|
E|---------|---------|---------|---------|

Chorus
 F	  C
G|---------|---------|---------|---------|---------|---------|---------|---------|
D|----|----|----|----|----|----|----|----|----|----|----|----|----|----|----|----| x2
A|----|----|----|----|----|----|----|----|3---|----|----|----|----|----|----|----|
E|1--------|---------|---------|---------|---------|---------|---------|---------|

 F	G	  Am
G|---------|---------|---------|---------|---------|---------|---------|---------|
D|----|----|----|----|----|----|----|----|----|----|----|----|----|----|----|----| 
A|----|----|----|----|----|----|----|----|----|----|----|----|----|----|----|----|
E|1--------|---------|---------|3--------|5--------|---------|---------|---------|

Say You’ll Wait

 G	G7	  C
G|---------|---------|---------|---------|---------|---------|---------|---------|
D|----|----|----|----|----|----|----|----|----|----|----|----|----|----|----|----|
A|----|----|----|----|----|----|----|----|3---|----|----|----|----|----|----|----|
E|3--------|---------|---------|---------|---------|---------|---------|---------|



Share this post


Link to post
Share on other sites

Create an account or sign in to comment

You need to be a member in order to leave a comment

Create an account

Sign up for a new account in our community. It's easy!

Register a new account

Sign in

Already have an account? Sign in here.

Sign In Now



×
×
  • Create New...