Jump to content
🪐 MY UNIVERSE | COLDPLAY X BTS | OUT SEPTEMBER 14TH 🛰

Lovers in Japan Chords/Tab (Acoustic)


Guest Osaka Sun

Recommended Posts

Guest Osaka Sun

[ame=http://www.youtube.com/watch?v=0c4tjuw3NWg]YouTube - Coldplay - Lovers In Japan (Acoustic, Best Quality)[/ame]

 

I just listened to this after hearing about the Japan earthquake today. :bigcry:

 

I'd love to get some help on this one, so beautiful.

Link to post
Share on other sites

E--------------------------------

B----10----7----3----3----2--

G--------------------------------

D----9-----5----0--------------

A-----------------------0----0--

E--------------------------------

 

That's the intro

 

And those are the first chords:

E---0---2---0---2---3---2---0---2

B---3---3---2---2---0---0---3---3

G---2---2---2---2---0---0---2---2

D---0---0---2---2---0---0---0---0

A---x----x---0---0---2---2---x---x

E---x----x---0---0---3---3---x---x

 

-------D--------A--------G------D---

 

I don't know where I found it cause it was a long time ago but I think it's correct.

Link to post
Share on other sites

The intro of the lead guitar that posted TheChampion is ok, the chords sounds good but the correct way to play is like this:

 

Without Capo

E---x---x---x----x---x---x---x---x

B---3---3---3---3---3---3---3---3

G---2---4---2---4---2---4---2---4

D---0---0---0---0---0---0---0---0

A---x----x---0---0---x---x----x---x

E---x----x---x---x---3---3----x---x

 

Theres another guitar or maybe is another instrument but it sounds like this:

Capo 7

E---x---x---x----x---x---x---x---x

B---3---3---3---3---3---3---3---3

G---2---4---2---4---2---4---2---4

D---0---0---0---0---0---0---0---0

A---x----x---x---x---3---3----x---x

E---3----3---x---x---x---x----3---3

Note: You can use this last chords but without capo to play the normal version, like Jonny plays in the video that posted Jin256

The rest later..

 

Sorry for the english

Link to post
Share on other sites
  • 1 month later...

After the part that Zergio put, I played this by ear, probably wrong though

 

E---0---0---3---2

B---0---1---0---3

G---0---0---0---2

D---2---2---0---0

A---2---3---2---x

E---0---3---3---x

Link to post
Share on other sites
  • 2 weeks later...
  • 3 years later...

Create an account or sign in to comment

You need to be a member in order to leave a comment

Create an account

Sign up for a new account in our community. It's easy!

Register a new account

Sign in

Already have an account? Sign in here.

Sign In Now


×
×
  • Create New...