Jump to content
📡 HIGHER POWER MUSIC VIDEO OUT JUNE 8 📡

Can anyone accurately tab Viva La Vida?


Recommended Posts

I'm asking because there is a video of Chris and Jonny playing it live and this video is like the only good quality video of Jonny playing it. All of the guitar tabs on any tab website is just not accurate and I was wondering if anyone here can tab it out using this video:

 

  • Like 1
Link to post
Share on other sites

I think that´s right... maybe

 

Inter-verse

e|-16~--15~-|

B|----------|

G|----------| x4

D|-13~--12~-|

A|----------|

E|----------|

 

Chorus

e|-------------------------------------------------------------------|

B|-9--9--9-9-9--9---9--9--9--9/16--16--16--16-16-16-13-13-13--13--13-|

G|-8--8--8-8-8--8---8--8--8--8/15--15--15--15-15-15-13-13-13--13--13-| x3

D|-6--6--6-6-6--5/6-6--6--6--6/13--13--13--13-13-13-13-13-13--13--13-|

A|-------------------------------------------------------------------|

E|-------------------------------------------------------------------|

 

e|---------------------------------------------|

B|-9--9--9-9-9--6---9--9--9--9--9--9--9-9-9-9-9|

G|-8--8--8-8-8--8---8--8--8--8--8--8--8-8-8-8-8|

D|-6--6--6-6-6--5/6-6--6--6--6--5--5--5-5-5-5-5|

A|---------------------------------------------|

E|---------------------------------------------|

 

Post-Chorus and Prechorus

e|---17---17---17---17-------------------------------------------17---17---17---17-|

B|-----------------------14---14---14---14---13---13---13---13---------------------|

G|---15---15---15---15---13---13---13---13---14---14---14---14---15---15---15---15-|

D|-13---13---13---13---13---13---13---13---13---13---13---13---13---13---13---13---|

A|---------------------------------------------------------------------------------|

E|---------------------------------------------------------------------------------|

 

e|---17---17---17---17-------------------------------------------17---17-|

B|-----------------------14---14---14---14---13---13---13---13-----------|

G|---15---15---15---15---13---13---13---13---14---14---14---14---15---15-|

D|-13---13---13---13---13---13---13---13---13---13---13---13---13---13---|

A|-----------------------------------------------------------------------|

E|-----------------------------------------------------------------------|

 

Bridge

e|-----------------------------|

B|-9--9--9-9-9-6-9-9--9--9-9-9-|

G|-8--8--8-8-8-8-8-8--8--8-8-8-|x3

D|-6--6--6-6-6-6-5-5--5--5-5-5-|

A|-----------------------------|

E|-----------------------------|

 

e|-------------------------|

B|-9-9-9-9-9-9-9-9-9-9-9-9-|

G|-8-8-8-8-8-8-8-8-8-8-8-8-|

D|-6-6-6-6-6-6-6-6-6-6-6-6-|

A|-------------------------|

E|-------------------------|

 

Outro: Same as the inter-verse

Link to post
Share on other sites

Create an account or sign in to comment

You need to be a member in order to leave a comment

Create an account

Sign up for a new account in our community. It's easy!

Register a new account

Sign in

Already have an account? Sign in here.

Sign In Now
×
×
  • Create New...