Jump to content
🌙 COLDPLAY ANNOUNCE MOON MUSIC OUT OCTOBER 4TH 🎵

Careful where you stand


Recommended Posts

Okay, im sure that someone has asked for the tabs for this, but i need to ask again. Does anyone have an understandable tab for careful where you stand?? :confused: i am in desperate need of this. ive been to a lot of sites but they all basically have the same thing. someone help.. pretty please? with wonka candy on top? and chocolate icing? and .. okay i think you get the point. :/

Link to comment
Share on other sites

picking pattern for this song:

 

-0------------0------------0------

-0------------0------------0------

-------0------------0------------

--------------------------------

--------------------------------

-0---0---0---0---0---0---0---0--

 

 

Chords (all with picking pattern):

 

C#m E/A F#m->E(2) #->A Bm G E B G#m F#m

 

-11- -4- -0-0-0-0- -2-2-4-0- -9- -5- -4- -9- -6- -4-

-0-- -0- -0-0-0-0- -0-0-0-0- -0- -0- -0- -0- -0- -0-

-9-- -4- -2-2-2-1- -3-3-6-6- -7- -4- -4- -8- -4- -2-

---- --- --------- --------- --- --- --- --- --- ---

---- -0- --------- --------- --- --- --- --- --- ---

-9-- --- -2-2-0-0- -2-2-5-5- -7- -3- -0- -7- -4- -2-

 

 

verse:

 

C#m with hammerings 9h11 on 3rd and 6th strings

"i am cured": E/A, C#m

"i'm all right": F#m->E(2)

 

chorus:

Bm, G, E, G

 

"it's true": B, G#, F#m, E*

 

E*:

 

-2->-4--

-0----0--

-2->-4-- x2

--------

--------

-0---0--

 

 

and again verse and chorus

but with little difference at the end:

 

-4-5-5-

-0-0-0-

-4-6-5- x4

-------

-------

-0-0-0-

 

(with "So I'd like a quiet time" lyrics)

 

 

then chorus chords

 

 

 

is there need to make the whole tab?

Link to comment
Share on other sites

Create an account or sign in to comment

You need to be a member in order to leave a comment

Create an account

Sign up for a new account in our community. It's easy!

Register a new account

Sign in

Already have an account? Sign in here.

Sign In Now


×
×
  • Create New...