Jump to content
🌙 COLDPLAY ANNOUNCE MOON MUSIC OUT OCTOBER 4TH 🎵

Parachute Tab.... ( guitar )


Recommended Posts

e|---------------------------------|---------------------------------|

B|---------------------------------|---------------------------------|

G|-----8-----8---------4-----4---|-----8-----8---------4-----4----|

D|---------------------------------|---------------------------------|

A|-------9---------------6---------|-------9---------------6--------|

E|-7---------------4---------------|-7---------------4--------------|

 

 

e|---------------------------------|---------------------------------|

B|---------------------------------|---------------------------------|

G|-----2-----2---------2-----2---|-----1-----1---------1-----1----|

D|---------------------------------|---------------------------------|

A|-------4---------------4---------|-------2---------------2--------|

E|-2---------------2---------------|-0---------------0--------------|

 

Lovely song to play...one of my favourites. You have to get used to using your thumb and hold these like chords and play each note in turn then switch to the next one. Enjoy! :)

Link to comment
Share on other sites

!!

 

yeah that seems to work fine^^^

Chris does this...

 

EABGBE

 

----------------------------------------------------------------

----------------------------------------------------------------

--------8--------8--------------4----------4------------------

-----------7-------------------------4-------------------------

------------------------0---------------------------0----------

---7---------7------7-------4----------4------4--------------

 

----------------------------------------------------------------

----------------------------------------------------------------

--------8--------8--------------4----------4------------------

-----------7-------------------------4-------------------------

------------------------0---------------------------0----------

---7---------7------7-------4----------4------4--------------

 

------------------------------------------------------------------

------------------------------------------------------------------

--------2------------2----------------2------------2-------------

------------2------------------------------2----------------------

-------------------------------------------------------------------

---2------------2-----------2---2-------------2------------------

 

-----------------------------------------------------------------------

------------------------------------------------------------------------

------------1------------1--------------------------------------------

---0------------0------------0----------------------------------------

-----------------------------------------------------------------------

--------0----------0--------------0------------------------------------

 

In one live show, he plays parachutes straight after You only live twice which is played in EADGBE. in the song, ^that^ is played over and over. it does change a bit each time

Link to comment
Share on other sites

Create an account or sign in to comment

You need to be a member in order to leave a comment

Create an account

Sign up for a new account in our community. It's easy!

Register a new account

Sign in

Already have an account? Sign in here.

Sign In Now


×
×
  • Create New...