Jump to content
🌙 COLDPLAY ANNOUNCE MOON MUSIC OUT OCTOBER 4TH 🎵

A Message 2010 (Jonny Buckland's Guitar Part??)


Joseph Ho

Recommended Posts

-------------------------------------------------------------------------------
    A Message 2010 - Coldplay
-------------------------------------------------------------------------------
Tabbed by: TyM218

Tuning: Standard (EADGBe)
Effects Used: Reverb

Verse Chords (C, Em, G, F, Alt-C)
e|-----0--3--1---0-----------------------------|
B|-----0--3--1---1-<--Alternative-Version-of-C-|
G|-9---0--4--2---0-----------------------------|
D|-10--2--5--3---2-----------------------------|
A|-10--2--5--3---3-----------------------------|
E|-8---0--3--1---x-----------------------------|

Chorus/Verse pt II Chords (F, C, G)
e|--1--0--3--|
B|--1--1--3--|
G|--2--0--4--|
D|--3--2--5--|
A|--3--3--5--|
E|--1--x--3--|

Guitar Verse Pt II
e|-----------|
B|-----------|
G|-----------|
D|--3--2--5--|
A|--3--3--5--|
E|--1--x--3--|

Guitar Chorus
e|---------------------------------------------------------------------------|
B|--8/15---17---13--12--8----------------------------------------------------|
G|---------------------------------------------------------------------------|
D|---------------------------------------------------------------------------|
A|---------------------------------------------------------------------------|
E|---------------------------------------------------------------------------|

Chorus End
e|-------8-------8----12--|
B|-----8--8----8---8--8---|
G|--10-------9------------|
D|------------------------|
A|------------------------|
E|------------------------|

Verse 2 (repeat throughout)
e|----7h8p7-----7------------------------------------------------------------|
B|----------8----8-----------------------------------------------------------|
G|--9--------9----9----------------------------------------------------------|
D|---------------------------------------------------------------------------|
A|---------------------------------------------------------------------------|
E|---------------------------------------------------------------------------|

Guitar Solo
e|----------20-20--------------20-20-----------------19-19-------------------|
B|--18-18---------18-18-18--18-------17-17-17-17--17-------15-15-15-15-------|
G|---------------------------------------------------------------------------|
D|---------------------------------------------------------------------------|
A|---------------------------------------------------------------------------|
E|---------------------------------------------------------------------------|


| /  slide up
| \  slide down
| h  hammer-on
| p  pull-off
| ~  vibrato
| +  harmonic
| x  Mute note
===============================================================================

Link to comment
Share on other sites

Create an account or sign in to comment

You need to be a member in order to leave a comment

Create an account

Sign up for a new account in our community. It's easy!

Register a new account

Sign in

Already have an account? Sign in here.

Sign In Now


×
×
  • Create New...