Jump to content
🌙 COLDPLAY ANNOUNCE MOON MUSIC OUT OCTOBER 4TH 🎵

Billie Jean (Michael Jackson) Coldplay cover Guitar tabs and Chords


Recommended Posts

I LIKE HOW COLPDLAY PERFORMS THIS SONG AND I STARTED LOOKING FOR TABS BUT I DIDNT FIND TOO MUCH SO I DECIDE TO DO IT BY MY SELF

 

JONNY TABS:

INTRO AND VERSES

e|------------------------------|

B|------------------------------|

G|------------------------------|

D|------------------------------|

A|---10----8-10-8-----------|

E|------10----------10-8-10-|

 

THIS IS WHEN CHRIS SAY

"WHO WILL DANCE ON THE FLOOR IN THE ROUND",

"CAUSE WE DANCED ON THE FLOOR IN THE ROUND",

" JUST REMEMBER TO ALWAYS THINK TWICE"

 

e|-------------------------------|

B|-------------------------------|

G|-------------------------------|

D|-10----8-10-8--------------|

A|-----10---------10-8-10----|

E|-------------------------------|

 

BRIDGE:

 

D# Gm Gms D#s D Ds

e|---4----3----6-----6----3-----5--|

B|---3----3----3-----3----2-----7--|

G|---4----3----3-----4----3-----7--|

D|---0----0----0-----0----0-----x--|

A|---x-----x----x-----x----x-----x--|

E|---x-----x----x-----x----x-----x---|

 

this is the order:

1st bridge

D#, Gm, D#, Gms, D#,Gms, D#s, D

2nd bridge

D#, Gm, D#, Gms, D#s,Gms, D#s, Ds

but in another performances after jonny plays D#s he changes the Gm chord for Gms , the D# for D#s and D for Ds

 

CHORUS:

 

e|------------------------------|

B|------------------------------|

G|------------------------------|

D|------------------------------|

A|---10----8-10-8-----------|

E|------10----------10-8-10-|

 

THIS IS WHEN CHRIS SAY

"BUT THE KID IS NOT MY SON"

 

e|-------------------------------|

B|-------------------------------|

G|-------------------------------|

D|-10----8-10-8--------------|

A|-----10---------10-8-10----|

E|-------------------------------|

 

SOLO:

e|---------------------------------------------|

B|---------------------------------------------|

G|---5-5h7-5---5h7----5h7-5------5h7--|

D|--------------8-------8----------8---------|

A|----------------------------------------------|

E|----------------------------------------------|

 

 

WILL CHORDS:

 

VERSE:

 

G A A#

e|----x------x--------x-------|

B|----3------5-------6-------|

G|----4------6-------7-------|

D|----4------6-------7-------|

A|----5------7-------8-------|

E|----x------x-------x--------|

 

The order is G, A, A# and A

 

 

THIS IS WHEN CHRIS SAY

"WHO WILL DANCE ON THE FLOOR IN THE ROUND",

"CAUSE WE DANCED ON THE FLOOR IN THE ROUND",

" JUST REMEMBER TO ALWAYS THINK TWICE", and

"BUT THE KID IS NOT MY SON"

 

 

Cm

e|----3-|

B|----4-|

G|----5-|

D|----5-|

A|----3-|

E|----x-|

 

 

CHORUS

 

 

 

 

D# Gm D DS

e|----6------3-----3-----5----|

B|----7------3-----2-----6----|

G|----7------3-----3-----6----|

D|----7------5-----0-----6----|

A|----6------5-----X-----5----|

E|----x------3-----X-----X-----|

 

this is the order:

 

D#,Gm, D#, Gm, D#, Gm, D#, D

but in another performances Will changes D for Ds

 

this video help me a lot.

[ame=http://www.youtube.com/watch?v=S8zuttmZ1Aw&feature=related]YouTube- Coldplay performing Billie Jean from Michael Jackson in Munich - Watch in HD[/ame]

Link to comment
Share on other sites

Create an account or sign in to comment

You need to be a member in order to leave a comment

Create an account

Sign up for a new account in our community. It's easy!

Register a new account

Sign in

Already have an account? Sign in here.

Sign In Now


×
×
  • Create New...