Jump to content
🌙 COLDPLAY ANNOUNCE MOON MUSIC OUT OCTOBER 4TH 🎵

god put a smile upon your face TABS


nanda

Recommended Posts

I'm having trouble playing that part that goes

 

"nooooooow, when you work it out I'm worse then you.."

and the rest of the verse that goes pretty much the same way, except for the last ones..

 

Here's what I got so far for the song

 

on intro, first and second verse chris goes:

----------------------------------------------------------|

----------------------------------------------------------|

---1-1-1----4-4-4----3-3-3----2-2-2-2-2-------------|

---2-2-2----5-5-5----4-4-4----3-3-3-3-3-------------|

---2-2-2----5-5-5----4-4-4----3-3-3-3-3-------------|

-0--------0---------0---------0-------------------------|

 

the, between first and second verse, jonny goes:

e ------------------------------------------------------|

B -14--12------12----12------------------------------|

G ---------13------------13------12--------------11-|

D ---------------------------14------------------------|

A ------------------------------------------------------|

E ------------------------------------------------------|

 

then it's the part I'm not so sure about.., I've got some idea of what jonny is playing, but I'm so sure about chris' part, anybody can help me with that?

 

thanks

Link to comment
Share on other sites

on that bit jonny goes

-------------------------------------------------------------------------------

-14/12-----------------------------------------------------------------------

----------13/16----16/13----------------------------------------------------

--------------------------------14/17-------16-----11-----------------------

-------------------------------------------------------------------------------

-------------------------------------------------------------------------------

 

 

 

 

 

and

 

16----14

12----14

13----15

X------X

X------X

X------X

 

you've also got those chords wrong im afraid.

 

tuning : C#G#C# F C#C#

 

(First chord is all strings open)

 

0---0---0---0

0---0---0---0

0---3---2---1

0---3---2---1

0---x---x---x

0---3---2---1

 

Now, when you work...

 

0---0---0

0---0---0

8---3---5

8---3---5

x---x---x

8---3---5

 

there are a few other things that you'll be able to work out by ear

Link to comment
Share on other sites

I will? lol I'm not tat good, I've been playing for less then six months..

 

I just tried that, but since I'm practicing on an acoustic guitar, I don't think I can reach the 17th fret

lol =/

 

thanks anyways

 

 

*gotta get an electric one*

Link to comment
Share on other sites

Create an account or sign in to comment

You need to be a member in order to leave a comment

Create an account

Sign up for a new account in our community. It's easy!

Register a new account

Sign in

Already have an account? Sign in here.

Sign In Now


×
×
  • Create New...