Jump to content
🌙 COLDPLAY ANNOUNCE MOON MUSIC OUT OCTOBER 4TH 🎵

Major Minus Guitar Solo


followchrist77

Recommended Posts

Here is the guitar solo tab to major minus. It is around 2:05 - 2:35.

 

e)----------------7-7-7----------14-14-14---------------

b)----------8-8----------------------------------15-15-15

g)------------------------------------------------------------

d)------------------------------------------------------------

a)------------------------------------------------------------

e)------------------------------------------------------------

 

This is played with a echo effect on the guitar. Try using the harmonics on this (holding your finger on top of/right before the bar on the right side of the fret space.)

Link to comment
Share on other sites

yeesh it's wrong. it's indeed 12th and 7th, all harmonics:

 

B|------------------------12--12--12-----7---7---7-7---------------

G|--12---12---12-12-------------------------------------7--7--7----

 

and it is not the solo anyway. the solo is the verse part + that:

((attention, the notes relative to each other are correct, but i have no guitar with me so you might move your hand up or down a few frets))

E|---------------17-------------------------------17---------------16----------------14-------------------------------14--

B|--15-14-15------15-14-15----15-14-15------15-14-15-------15-14-15-------15-14-15----15-14---------

G|-----------------------------------------------------------------------------------------------------------------------16-----

 

 

E|------------------------------14--------------14---

B|--15-14-15---15-14-----------15-14----------and all over again....

G|--------------------------16---------------16------

 

well i have no guitar here so there might be some mistakes, esp. i don't know where to start

Link to comment
Share on other sites

Create an account or sign in to comment

You need to be a member in order to leave a comment

Create an account

Sign up for a new account in our community. It's easy!

Register a new account

Sign in

Already have an account? Sign in here.

Sign In Now


×
×
  • Create New...