Jump to content
🌙 COLDPLAY ANNOUNCE MOON MUSIC OUT OCTOBER 4TH 🎵

Viva La Vida 12-12-12 acoustic guitar tab


dlouis

Recommended Posts

I saw a thread asking for the tab so here it is! Chris varies his chords a little bit so have fun messing around

 

Tuning: Half Step Down

Verse:

He plays it this first way more often than the second way found below

 

Eb|------|------|--------|--(7)--|

Bb|------|------|--------|--(7)--|

Gb|------|------|-------|--(7)--|

Db|-12--|--12-|--12--|--7--|

Ab|-12--|--12-|--12--|--9--| or

Eb|-10---|--0--|--9---|--9--|

 

Eb|------|------|--------|--(7)--|

Bb|------|------|--------|--(7)--|

Gb|------|------|-------|--(7)--|

Db|-12--|--12-|--12--|--7--|

Ab|-12--|--12-|--12--|--9--|

Eb|-10---|-12--|--9---|--9--|

 

 

Chorus:

 

Eb|------|------|-----|-----|

Bb|---7-|---7--|--5-|---2--|

Gb|---7-|--7---|--6--|--2--|

Db|---7-|--7--|---7--|--4--|

Ab|---5-|--7--|---7--|--4--|

Eb|-------|-----|--5---|--2--|

Link to comment
Share on other sites

  • 2 years later...

Create an account or sign in to comment

You need to be a member in order to leave a comment

Create an account

Sign up for a new account in our community. It's easy!

Register a new account

Sign in

Already have an account? Sign in here.

Sign In Now


×
×
  • Create New...