Jump to content
🌙 COLDPLAY ANNOUNCE MOON MUSIC OUT OCTOBER 4TH 🎵

i`m so happy... at last have "parachutes" tabbook


teddypeak

Recommended Posts

actually i don`t have possibility to scan it right now:/ maybe soon??

btw the "parachutes" tab above is not really correct....

the song is not too long so i can make a tab for it (just like in the book)

...as a consolation...so far:/

Link to comment
Share on other sites

chords:

B - 7x78xx

G#m - 4x44xx

F#m - 2x22xx

E - 02x1xx

 

intro:

B G#m B G#m

D#|---------------|----------------|----------------|-----------------|

B |---------------|----------------|----------------|-----------------|

G |---8-----8-----|---4-----4------|---8-----8------|---4-----4-------|

B |-----7---------|-----4----------|-----7----------|-----4-----------|

A |------------(0)|-------------(0)|-------------(0)|-------------(0)-|

E |-7-----7---7---|-4-----4---4----|-7-----7---7----|-4-----4---4-----|

q e e e e e e q e e e e e e q e e e e e e q e e e e e e

 

F#m E

D#|--------------|--------------|----------------|--------------|

B |--------------|--------------|----------------|--------------|

G |---2-----2----|---2-----2----|---1-----1------|--------------|

B |-----2--------|-----2--------|----------------|--------------|

A |--------------|-----------2--|-----2-----(2)--|--------------|

E |-2-----2---2--|-2-----2------|-0-----0--------|-0------------|

q e e e q e q e e e q e q e e e q e w

 

verse 1:

B G#m B G#m

D#|---------------|-----------------|--------------|-----------------|

B |---------------|-----------------|--------------|-----------------|

G |---8-----8-----|---4-----4-------|---8----------|---4-----4-------|

B |-----7---------|-----4-----4-----|-----7--7-5---|-----4-----4-3---|

A |---------------|-----------------|--------------|-----------------|

E |-7-----7---(0)-|-4-----------(0)-|-7------------|-4---------------|

q q e e e e e q q e e e q q q e e e q q e e e

 

F#m E

D#|----------------|----------------|---------------|----------------|

B |----------------|----------------|---------------|----------------|

G |-----2-----2----|---2-----2------|---1-----1-----|---1-----1------|

B |---2---2--------|-----2-----2-0--|---------------|----------------|

A |----------------|----------------|-----2---------|-----2-----2-2--|

E |-2-------2---2--|-2-----2--------|-0-----0---0---|-0-----0--------|

e e e e e q e q e e e e e e q e e e q e q e e e e e e

 

verse 2:

B G#m B G#m

D#|--------------|----------------|--------------|----------------|

B |--------------|----------------|--------------|----------------|

G |---8-------8--|---4-----4------|---8----------|---4----4-------|

B |-------7------|-----4---4-4-5--|-------7-7-5--|-----4----4-3---|

A |--------------|----------------|--------------|----------------|

E |-7---7---7----|-4--------------|-7---7--------|-4--------------|

q e e e e q e q q e e e q e e q e e e q q e e e

 

F#m E

D#|---------------|----------------|------------|------------|

B |---------------|----------------|------------|------------|

G |---2-----2-----|---2-----2------|---1---1----|------------|

B |-----2---------|-----2-----2-0--|------------|------------|

A |---------------|----------------|-----2------|------------|

E |-2-----2---2---|-2-----2--------|-0-------0--|-(let ring)-|

q e e e q e q e e e e e e q q q e e w

 

=========================================

w - whole note

q - quarter note

e - eighth note

Link to comment
Share on other sites

I proudly own all three coldplay tab books. I bought them for about £15 each from a music store in the metrocentre (BIG BIG shopping centre near me). I always loved playing along to don't panic. I actually own my own home recording studio & have recorded a cover of don't panic, you can hear it on my music myspace HERE

 

xo

Link to comment
Share on other sites

Create an account or sign in to comment

You need to be a member in order to leave a comment

Create an account

Sign up for a new account in our community. It's easy!

Register a new account

Sign in

Already have an account? Sign in here.

Sign In Now


×
×
  • Create New...