Jump to content
🚀COLDPLAY PREMIERE THEIR NEW SINGLE 'HIGHER POWER' FROM SPACE✨

Recommended Posts

  • Replies 773
  • Created
  • Last Reply

Top Posters In This Topic

oh god. ok but that might take a while. here's a taster!

---------------------------------------------------

--5---5---5---5---5---5---5---5---5---5---5----

-5b7-b---b---b---b---b---5---5---5---5---5----

---------------------------------------------------

---------------------------------------------------

---------------------------------------------------

 

is that a little confusing? i'l do it all properly later

Link to post
Share on other sites
in fix you, Jonny tunes his guitar to EADGBD# and goes

 

---0---0---0---0---0---0---0---0---0---0---0---0---0---0---0-------

---6---6---6---6--11--11--11-11--11--6---6---6---5---5---5-------

-------------------------------------------------------------------------

-------------------------------------------------------------------------

-------------------------------------------------------------------------

-------------------------------------------------------------------------

 

 

Sorry but I dont think its right. That F and E (6th and 5th fret on B string) is wrong.

So do it this way:

Tune the guitar half step down (Eb Ab Db Gb Bb Eb) and play this:

Eb|-0-...-0--...-0-...-0-

Bb|-5-...-12-...-5-...-4-

And this fits the best to the song I think. I havent seen any video of Coldplay so every tab is just from my ears.

Link to post
Share on other sites

THE SCIENTIST ACOUSTIC

 

Tuning:EADGBC

 

0

10

10

12

12

10

 

0

6

7

8

8

6

 

0

1

2

3

3

1

 

Nobody...

0

6

7

8

8

6

 

0

1

2

3

3

1

 

0

8

9

10

10

8

 

back to the start...

0

1

2

3

3

1

 

0

6

7

8

8

6

 

0

10

10

12

12

10

 

0

6

7

8

8

6

 

0

1

2

3

3

1

 

Thats all the chords. Youll be able to piece it toghether

Link to post
Share on other sites

Tonight in which time zone? *prays you're from Britain where it's 20:00* :)

 

lol I'm so impatient. XD

 

BTW, I noticed you can play A Message along with the album version if capo is on 1. Likewise with Warning Sign, capo should be on 3 for album version.

Link to post
Share on other sites

Aww wtf. I have to wait 3 MORE hours? XD

 

lol jk

 

Also, I fixed Fix You's all band part

 

Tears stream... 3x

0---0---0---0--

0---0---0---7h0

1---5---1---8--

2---7---2---9--

2---7---2---9--

0---6---0---7--

 

also, end on

 

0

0

1

2

2

0

 

EDIT: The second time you play this series, the first chord is different. I think instead of

 

0

0

1

2

2

0

 

it's

 

0

0

4

6

6

4

 

Not sure yet, but it sounds better.

Link to post
Share on other sites

here is my new fix you full band acoustic

 

0---0---0

0---0---0

1---6---8

2---7---9

2---7---9

0---5---7

 

0

7

8

9

9

7

 

 

and then

0----0---0---0

9----5---0---7

9----6---1---8

11---7--2---9

11---7--2---9

9----5--0---7

 

do these do parts alternatly. that IS the correct way. you were nearly there glking - joke. the middle chord connects the two.

Link to post
Share on other sites

SPIES (ACOUSTIC)

 

Tuning: EAC#GBC#

 

Intro

0

9

9

0

x

9

 

0---0---0---0

2---2---5---4

2---0---6---4

0---1---0---0

x---2---x---x

2---0---5---4

 

THE REST LATER

Link to post
Share on other sites
do these do parts alternatly. that IS the correct way. you were nearly there glking - joke. the middle chord connects the two.

 

you got me confused kapone. i just request tabs. i dont actually attempt to do them myself. so i'm pretty much worthless in everyway. but thanks for spies, and when you get time, maybe we never change? cheers ahead of time.

Link to post
Share on other sites
do these do parts alternatly. that IS the correct way. you were nearly there glking - joke. the middle chord connects the two.

 

you got me confused kapone. i just request tabs. i dont actually attempt to do them myself. so i'm pretty much worthless in everyway. but thanks for spies, and when you get time, maybe we never change? cheers ahead of time.

 

oh, sorry, i got mixed up with you and YamiMarik. We Never Change as well? ill do it with spies. sorry about that!

Link to post
Share on other sites

Create an account or sign in to comment

You need to be a member in order to leave a comment

Create an account

Sign up for a new account in our community. It's easy!

Register a new account

Sign in

Already have an account? Sign in here.

Sign In Now



×
×
  • Create New...