Jump to content
🚀COLDPLAY PREMIERE THEIR NEW SINGLE 'HIGHER POWER' FROM SPACE✨

Recommended Posts

trouble acoustic? i've heard a couple of versions' date=' but the one i'm trying to find is the one that was filmed for vh1 probably 5 years ago. there's a nice video of it.[/quote']

 

yeah, that exact performance is in this thread somewhere

Link to post
Share on other sites
  • Replies 773
  • Created
  • Last Reply

Top Posters In This Topic

hi

what about See You Soon?

you've posted the verse and what about the rest?

 

anyway what do you think about that:

 

-x-0-9-0-0-9-

-x-0-4-0-0-4-

-x-0-7-0-0-7-

-x-7-0-0-7-0-

 

and different chords for different lines:

 

-x-2-0-0-2-0- (studio) or something like -x-4-0-0-2-0- or -3-4-0-0-2-0- (DVD)

-x-0-0-0-8-0- (studio) or -x-9-0-0-8-0- (DVD)

-x-0-0-0-7-0- (studio) or -x-9-0-0-7-0- (DVD)

 

and coda:

 

-x-9-0-0-8-0-

-x-7-0-0-7-0- repeated four times

-x-2-0-0-2-0-

 

 

hmmm

Link to post
Share on other sites

TILL' KINGDOM COME

 

Tuning: CACGBE

 

Verse:

0---0---0

1---3---5

0---0---0

0---0---0

3---5---7

0---x---x

 

I've never felt like...

0----0----0----0----0-----0----0

8----5----6----3----5-----0----1

0----0----0----0----0-----0----0

0----0----0----0----0-----0----0

10---7---8----5-----7----2----3

x----x----x----x----x-----x----0

 

And the wheels...

0----0---0

10---6---1

0----0---0

0----0---0

12---8---3

x----x---0

and then..."I don't know which way...

0---0----0

6---8----1

0---0----0

0---0----0

8---10---3

x---x----x

 

For you I'd wait

0---0---0

6---8---1

0---0---0

0---0---0

8--10---3

x---x---x

 

So say...

0---0---0

6---8---10

0---0---0

0---0---0

8--10---12

x---x---x

 

Just say you'll wait. You'll wait for me

0----0----0

8----6----1

0----0----0

0----0----0

10--8-----3

x----x----0

 

In the recording, at the chorus, Chris starts using some really annoying chords. He adds a bass note. For example:

0

6

0

0

8

5

 

Apply that shape to all the chords in the chorus if you can manage it

Link to post
Share on other sites

SPARKS

 

Tuning: EADGBD

Capo: 6th Fret

 

0---0---0---0---0---0

0---0---0---0---0---0

0---0---0---0---0---0

2---4---5---7---2---2

2---6---7---8---4---3

0---x---x---x---x---x

 

For the verse, Chris plays

0---0

0---0

0---0

4---5

5---7

x---x

 

then that other chord is (Am)

0

1

2

2

0

X

 

For the verse, I prefer

0---0

0---0

0---0

0---2

2---2

3---0

 

and then that other chord (Am)

Link to post
Share on other sites

a little comment for Sparks

 

in the verse it possible to play chords (G and Em) with bass notes:

0---0

0---0

0---0

4---5

5---7

3---0

 

and that other chord is

 

0

0

5

7

7

5

 

(related to capo)

 

 

Kapone, is that all right that I put my thoughts on songs in your thread?

Link to post
Share on other sites
hey kapone' date=' have you seen the acoustic video to speed of sound, the mtv promo one, where they are in a hotel? think you can work out that part that johnny is playing?[/quote']

 

 

sure my man. could you find me a link to the video? My laptops in England. cheers

Link to post
Share on other sites

in fix you, Jonny tunes his guitar to EADGBD# and goes

 

---0---0---0---0---0---0---0---0---0---0---0---0---0---0---0-------

---6---6---6---6--11--11--11-11--11--6---6---6---5---5---5-------

-------------------------------------------------------------------------

-------------------------------------------------------------------------

-------------------------------------------------------------------------

-------------------------------------------------------------------------

Link to post
Share on other sites

Create an account or sign in to comment

You need to be a member in order to leave a comment

Create an account

Sign up for a new account in our community. It's easy!

Register a new account

Sign in

Already have an account? Sign in here.

Sign In Now



×
×
  • Create New...