Jump to content
📡 HIGHER POWER MUSIC VIDEO OUT JUNE 8 📡

Recommended Posts

  • Replies 773
  • Created
  • Last Reply

Top Posters In This Topic

GREEN EYES:

 

OK, I've just worked out the chords and the little hammer ons and offs. Here they are: Standard Tuning

 

Verse 1

0---0---0---0

2---5---3---3

2---4---4---2

2---2---4---4

0---X---2---2

X---3---X---X

 

Green Eyes...

 

0---0---0---0

3---3---2---5

4---2---2---4

4---0---2---2

2---X---0---X

X---X---X---3

 

This is that chord change into 'I came here with...'

0---0---0

5---5---5

4---4---6

2---0---6

X---X---4

3---3---X

 

I came here with...

0---0---0---0---0---0---0

3---3---2---2---0---3---5

4---4---3---2---0---2---6

4---4---0---2---0---0---6

2---X---X---0---2---X---4

X---2---X---X---3---2---X

The first two chords above are repeated. You'll know what I mean when you play it...

 

When repeats green eyes, that single chord is:

and he hammers that 3rd string from the second fret

0

3

4

4

2

X

 

Well, that pretty much covers the song. This song is quite technical so it may not seem clear at first but overall, I'm pleased with it. Its 100% accurate

Link to post
Share on other sites

TROUBLE ACOUSTIC (VH1)

 

Someone requested this so here are the chords from that VH1 Acoustic performance...

This is exactly how he played its on that performance anyway. The tuning is

EADGBD

 

 

0--0--0--0

3--7--7--7

4--0--7--6

5--5--9--9

5--7--9--9

3--0--7--7

 

0--0--0

1--1--3

2--2--4

3--2--5

3--0--5

1--x--3

 

 

I never meant...

0---0

5---0

6---0

7---2

7---2

5---0

 

This bits at the end when chris mixes his and Jonny's slide part

 

0---0---0-----0

8---8---7----10

0---0---7-----0

9---9---0----11

10--7---9----12

x---0---7-----x

 

They spun a web

0---0---0

0---2---3

0---2---4

2---4---5

2---4---5

0---2---3

 

 

how you like...

  • Like 1
Link to post
Share on other sites

FIX YOU (ACOUSTIC)

 

Tune down 1/2 step

 

0--0---0---0

0--0---9---7

1--4---9---8

2--6--11---9

2--6--11---9

0--4---9---7

 

Lights will guide...

0---0---0

0---0---7

6---4---8

7---6---9

7---6---9

5---4---7

 

 

The whole band bit

0---0---0---0

0---7---0---0

1---8---1---1

2---9---2---1

2---9---2---2

0---7---0---0

 

*THE WHOLE BAND BIT SOUNDS SHITE! WILL PERRFECT IT LATER

Link to post
Share on other sites

SWALLOWED IN THE SEA (ACOUSTIC)

Tuning: EADGBD#

 

0---0---0

7---0---0

8---3---1

9---4---2

9---4---2

7---2---0

 

I could write a song (this is also the end of the song)

0---0---0---0

0---7---0---0

1---8---4---3

2---9---6---4

2---9---6---4

0---7---4---2

 

 

That bit where the band all go OOOOOAAAAAAAAAHHHH

 

0-----0----0-----0

9-----0----7-----0

9-----1----8-----3

11----2---9------4

11----2---9------4

9-----0----7-----2

 

second time...

 

 

0-----12-----0-----0

9-----12-----7-----0

9-----13-----8-----3

11----14----9------4

11----14----9------4

9-----12-----7-----2

 

All the chords are there now. You just have to make it fit

Link to post
Share on other sites

A MESSAGE (ACOUSTIC)

 

Don't try to play along to the record with this because this is played down half a step. You can play along to the Japanese Acoustic Session though. I'll do the album version later on...

 

Tuning: EADGCC

 

0

0

9

10

10

8

 

0

0

0

2

2

0

 

0

0

4

5

5

3

 

0

0

2

3

3

1

 

0

0

0

2

3

3

 

Chorus

 

0

0

10

12

12

10

 

0

0

9

10

10

8

 

0

0

4

5

5

3

 

then back to the beginning and then this is the end bit

 

0

0

2

3

3

1

 

0

0

0

2

3

3

 

0

0

0

0

2

3

 

0

0

2

2

0

X

Link to post
Share on other sites

HELP IS ROUND THE CORNER:

Tuning: C#G#C#F#C#F

Thats the tuning chris uses. If you don't want to snap the strings then use a capo on the first fret and this tuning: CGCFCE

 

The Chords in order of appearence are:

0------0-----0----0-----0----0

0------0-----0----0-----0----0

2------4-----4----4-----1----6

0------4-----4----5-----2----7

0------0-----x----5-----2----7

0------0-----4----5-----2----7

Link to post
Share on other sites

thanks kapone....

 

p.s how long you been playing guitar to get this good so you can work out songs i have been playing three years and still cant work them out got to rely on guys loke you ......

Link to post
Share on other sites

THE SCIENCTIST (ELECTRIC)

 

OK, the tuning is EADEAE with a copo in the first fret

 

0

0

0

0

11B

0

 

0

0

0

9

0

x

 

0

0

0

7

0

x

 

0

11

9

11

11

X

 

 

The last three chords are

 

0

11

9

11

11

X

 

0

0

0

9

0

x

 

0

8

0

7

8

0

 

I haven't got a guitar here now but I'll check those are right

Link to post
Share on other sites

Create an account or sign in to comment

You need to be a member in order to leave a comment

Create an account

Sign up for a new account in our community. It's easy!

Register a new account

Sign in

Already have an account? Sign in here.

Sign In Now



×
×
  • Create New...