Jump to content
Kapone

Kapone's Tabs

Recommended Posts

thaks kliff0rd you made me feel so much better does that mean im shit at guitar then :embarrased: or a very slow learner..

haha i'm just kidding. i'm the same way

Share this post


Link to post
Share on other sites

I've played for three years too, but I don't feel bad... I once met a guy that thought he was slash and played like crap... his hair was pretty much alike though :lol:

Share this post


Link to post
Share on other sites

YELLOW (ACOUSTIC)

 

Tuning

EABGBD#

 

Intro

 

0-----0

0-----0

8-----9

7-----7

9-----9

7-----7

 

Verse

 

0------0------0

0------2------0

8------3------1

7------4------0

9------4------2

7------2------0

 

Chorus

 

0---0---0

0---4---2

1---4---3

0---0---4

2---6---4

0---4---2

 

Outro

 

0---1---0

0---0---0

8---2---1

7---2---0

9---x---2

7---2---0

Share this post


Link to post
Share on other sites

Yeah. I just got back from London (cp!) but ill do those later

Share this post


Link to post
Share on other sites

WARNING SIGN (CHRIS)

Tuning: EADGBD

Capo: Second

 

Intro (sometimes added, sometimes not)

Hammer your middle finger

0

1

0

2

3

3

 

Verse:

0---0---0---0

6---1---8---3

0---0---0---0

7---2---9---4

8---3--10---5

8---3--10---5

For this, hammer your middle finger on the 2nd and 4th chord. You'll hear it in the song

 

Chorus: And the truth is...

0---0---0---0

1---0---3---3

0---0---4---2

2---2---5---0

3---2---5---0

3---0---3---2

 

and I'm tired...

0---0---0---0

1---0---3---3

2---0---4---2

3---2---5---0

3---2---5---0

1---0---3---2

Hammer the third string on the last chord above and keep that chord going for a bit before going into this bit (only on the second time)

 

The end bit: 'and I crawled...'

0---0---0---0

8---6---1---0

0---0---2---0

9---7---3---2

10--8---3---2

10--8---1---0

 

 

just tell me if i've missed anything out.

XX

Share this post


Link to post
Share on other sites

OK, I'm going to plow through everything.

Share this post


Link to post
Share on other sites

Aww that's good,I got some of those right so maybe I'm not a total failure afterall :P

 

Thanks alot for this,your tabs are the most accurate I've tried,we really appreciate this.:D

Share this post


Link to post
Share on other sites

thanks! by the way, that can't be used with the album version. Thats got a different tuning etc. might do it later

Share this post


Link to post
Share on other sites

thanks. would anyone like See you Soon? There are NO correct tabs on the internet right now

Share this post


Link to post
Share on other sites

^^Yep!I would appreciate that one,it's funny because I was just thinking bout doing it yesterday so you read my mind,I tried it before and it did sound okay but something was off and I don't have much experience so I couldn't get it right,thanks in advance.:)

Share this post


Link to post
Share on other sites

very true kapone, there are absolutely no correct see you soon tabs out there

Share this post


Link to post
Share on other sites

SEE YOU SOON

 

Tuning: EGDDBD

 

Capo: Second

 

I've seen a nearly right tab on Ultimate Guitar but really its shit ;)

 

I'm going to put the chords first, then put them in a tab form to show the rythm.

 

0---0---0---0

3---5---7---2

0---0---0---0

0---0---0---0

4---6---7---2

x---x---x---x

 

--0------0---------------0----------0-----------0------0--------------------

--3-----------3----------5----------7-----------2----------2----------------

--0------------------0---0-------0--0------0---0------------------0--------

--0---------------0------0----0-----0---0------0--------------0------------

--4---4------------------6----------7-----------2---2-----------------------

--x----------------------x-----------x----------x----------------------------

 

continued....

 

----0--------0----------------------------------------------

-0h2-------------2-----------------------------------------

----0--------------------0----------------------------------

----0----------------0--------------------------------------

----2---2---------------------------------------------------

----x-------------------------------------------------------

 

Ok, so thats the bit when Chris isn't singing. Its the same chords but different rythm when he is:

--0-------0---------0-----0------0------------------0--------------------0-------

--3----------3------5-----7----------7--------2--------2---------0h2-------2----

--0-----------------0-----0----------------0--0---------------0---0--------------

--0-----------------0-----0-------------0-----0------------0------0--------------

--4---4-------------6-----7---7---------------2--2----------------2--2-----------

--x---------------------------------------------------------------------------------

Chorus:

Slide into the first chord. Strum this using your thumb and first finger

 

9---4---7---0---0

0---0---0---7---2

0---0---0---0---0

9---4---7---0---0

0---0---0---7---2

x---x---x---x---x

 

Then:

0---0---0

8---7---3

0---0---0

9---9---5

0---0---0

10--X--x

 

I think thats right but I haven't got a guitar with me. Will check that later.

 

So thats verses and chorus'

Share this post


Link to post
Share on other sites

Oh by the way, if you want to play warning sign album version then use the chords above but with capo on the third fret

Share this post


Link to post
Share on other sites
Oh by the way' date=' if you want to play warning sign album version then use the chords above but with capo on the third fret[/quote']

 

and detune half a step down if i remember correctly

Share this post


Link to post
Share on other sites

can someone do 'DONT PANIC' it would be greatly appreciated.

Share this post


Link to post
Share on other sites

yeah, but the whole song would be nice :smug:

Share this post


Link to post
Share on other sites

DON'T PANIC (ACOUSTIC)

 

Intro

0---0

1---0

2---0

3---3

3---3

1---1

 

Verse

0---0---0---0

1---1---1---0

2---0---2---0

2---2---3---3

0---3---3---3

x---3---1---1

 

Chorus

0-----0----0

10----5----3

10----5----4

12----7----5

12----7----5

10----5----3

 

Then do the first two chords above again but instead of the third chord, go down to:

0

1

2

3

3

1

 

Those are all the acoustic parts

 

DON'T PANIC (ELECTRIC)

 

In the album version, there's an electric strumming along with the acoustic. Use those acoustic chords for that. Live, slowly sweep these chords below once as they come in. You'll hear what I mean

5---0---0

5---1---1

5---0---2

7---2---3

x---x---x

x---x---x

 

Then the chorus is

10--10--10--10--10--10--10--10--10--10--10--10--10--10--10--10-----

10--10--10--10--10--10--10--10--12--12--12--12--13--13--13--13-----

--------------------------------------------------------------------------------

--------------------------------------------------------------------------------

--------------------------------------------------------------------------------

--------------------------------------------------------------------------------

 

5--5--5--5--5--5--5-----------15----15------------15---------------

5--5--5--5--5--5--5-----------13----12-----12------------12-------

------------------------------------------------------------------------

------------------------------------------------------------------------

------------------------------------------------------------------------

------------------------------------------------------------------------

 

Then on the second time, its:

--------5--------------------5-----------------------------------------

-5h6------5h6p5----5h6--------5h6p5------------------------------

------------------------------------------------------------------------

------------------------------------------------------------------------

------------------------------------------------------------------------

------------------------------------------------------------------------

 

Then, the last solo is:

-12-------12-------12-------12-------12-------12--------12---------

------13-------13-------13-------13-------13--------13-------13----

------------------------------------------------------------------------

------------------------------------------------------------------------

------------------------------------------------------------------------

------------------------------------------------------------------------

 

and then then hammering bit on the 5th fret

Share this post


Link to post
Share on other sites

thanks, greatly appreciated.

Share this post


Link to post
Share on other sites

trouble acoustic? i've heard a couple of versions, but the one i'm trying to find is the one that was filmed for vh1 probably 5 years ago. there's a nice video of it.

Share this post


Link to post
Share on other sites

Create an account or sign in to comment

You need to be a member in order to leave a comment

Create an account

Sign up for a new account in our community. It's easy!

Register a new account

Sign in

Already have an account? Sign in here.

Sign In Now



×
×
  • Create New...