Jump to content
🚀COLDPLAY PREMIERE THEIR NEW SINGLE 'HIGHER POWER' FROM SPACE✨

Recommended Posts

  • Replies 773
  • Created
  • Last Reply

Top Posters In This Topic

oh yeah kapone, what about clocks acoustic? just the chords i mean. ive heard a version of it somewhere hopefully you have it.. actually it was on that show they did before the album came out at the edge, it was a live radio show. you know they one?

Link to post
Share on other sites
Hey kapone! What about the acustic guitar on fix you? From "high up above or down below.."

Could you tab it?

 

It's already in here; 1st page.

 

Kapone, can you also put A Rush of Blood to the Head on your to-do list? Or do you already have a tab ready made?

Link to post
Share on other sites

E 0 0 0

B 1 1 0 for the verses, so its Am, C, E

G 2 0 0

D 2 2 2

A 0 3 2

E 0 0 0

 

then when he goes 'ohhh... etc'

 

E 1 0

B 1 1

G 2 2

D 3 3

A 0 0

E 0 0

 

i kno its not the whole thing and sorry to piss in ur thread kapone cuz im sure u probably have a better one, but it should get u started...

Link to post
Share on other sites

A RUSH OF BLOOD TO THE HEAD

 

Tuning EADGBC

 

0---0---0

1---1---0

2---0---0

2---2---2

0---3---2

x---3---0

 

0---0

1---0

2---0

3---3

3---3

1---1

 

Honey...

0---0----0

1---10---6

2---11---7

3---12---8

3---12---8

1---10---6

Link to post
Share on other sites
TILL' KINGDOM COME

 

Tuning: CACGBE

 

Verse:

0---0---0

1---3---5

0---0---0

0---0---0

3---5---7

0---x---x

 

I've never felt like...

0----0----0----0----0-----0----0

8----5----6----3----5-----0----1

0----0----0----0----0-----0----0

0----0----0----0----0-----0----0

10---7---8----5-----7----2----3

x----x----x----x----x-----x----0

 

And the wheels...

0----0---0

10---6---1

0----0---0

0----0---0

12---8---3

x----x---0

and then..."I don't know which way...

0---0----0

6---8----1

0---0----0

0---0----0

8---10---3

x---x----x

 

Thats all I can do for now. Will finish later

 

Thanks for this. It's far better than all the others out there. Have you completed the chorus yet?

 

 

Hey Kapone,

 

I'm also working on a tab to play Til Kingdom Come. I've been using the Japanese Acoustic Set that Coldplay played and so far you are dead on with the verses. I'm stuck on a couple of chords in the song but I'm gonna try to figure it out today.

 

The chorus kinda goes like this...

"For you I'd wait til Kingdom come..." to "And say you'll come and set me free..." the chords are

0----0

6----1

0----0

0----0

8----3

X----X

 

I could be wrong though, there seems to be a chord change during the "set me free..." part.

 

And now I'm stuck on "And say you'll wait and wait for me"...

Any ideas?

Link to post
Share on other sites
TILL' KINGDOM COME

 

Tuning: CACGBE

 

Verse:

0---0---0

1---3---5

0---0---0

0---0---0

3---5---7

0---x---x

 

I've never felt like...

0----0----0----0----0-----0----0

8----5----6----3----5-----0----1

0----0----0----0----0-----0----0

0----0----0----0----0-----0----0

10---7---8----5-----7----2----3

x----x----x----x----x-----x----0

 

And the wheels...

0----0---0

10---6---1

0----0---0

0----0---0

12---8---3

x----x---0

and then..."I don't know which way...

0---0----0

6---8----1

0---0----0

0---0----0

8---10---3

x---x----x

 

Thats all I can do for now. Will finish later

 

Thanks for this. It's far better than all the others out there. Have you completed the chorus yet?

 

 

Hey Kapone,

 

I'm also working on a tab to play Til Kingdom Come. I've been using the Japanese Acoustic Set that Coldplay played and so far you are dead on with the verses. I'm stuck on a couple of chords in the song but I'm gonna try to figure it out today.

 

The chorus kinda goes like this...

"For you I'd wait til Kingdom come..." to "And say you'll come and set me free..." the chords are

0----0

6----1

0----0

0----0

8----3

X----X

 

I could be wrong though, there seems to be a chord change during the "set me free..." part.

 

And now I'm stuck on "And say you'll wait and wait for me"...

Any ideas?

 

That helped a lot. I just watched the Pepsi Smash performance here: http://music.yahoo.com/ar-303082-videos--Coldplay and I think I figured out the remaining chords:

 

For you I'd wait til Kingdom come

0----0

6----1

0----0

0----0

8----3

X----X

 

Until my day my day is done

0----0

6----1

0----0

0----0

8----3

X----X

 

And say you'll come And set me free

0----0----0

6----8----10

0----0----0

0----0----0

8----10---12

X----X----X

 

Just say you'll wait you'll wait for me

0----0----0

8----6----1

0----0----0

0----0----0

10---8----3

X----X----X

 

If that's correct then the song is done.

Link to post
Share on other sites

HIGH SPEED (ACOUSTIC)

 

Tuning: DGDGBD

 

0---0

1---3

0---0

3---5

3---5

1---3

 

0

0

7

7

0

x

 

Can anybody...

 

0---0

8---0

0---7

7---7

8---0

x---x

 

Before my head:

0---0---0---0

8---8---6---0

0---0---0---7

7---8---8---7

8---8---8---0

x---x---x---x

 

We've been living life:

0---0---0

8---6---0

0---0---7

8---8---7

8---8---0

x---x---x

 

2nd - We've been life:

0---0---0

1---5---0

0---0---7

3---5---7

3---5---0

1---x---x

 

Confidence in you:

0---0---0

1---3---0

0---0---7

3---5---7

3---5---0

1---3---x

 

then all again and the end chord you stay on is

0

0

7

7

0

x

Link to post
Share on other sites
TILL' KINGDOM COME

 

Tuning: CACGBE

 

Verse:

0---0---0

1---3---5

0---0---0

0---0---0

3---5---7

0---x---x

 

I've never felt like...

0----0----0----0----0-----0----0

8----5----6----3----5-----0----1

0----0----0----0----0-----0----0

0----0----0----0----0-----0----0

10---7---8----5-----7----2----3

x----x----x----x----x-----x----0

 

And the wheels...

0----0---0

10---6---1

0----0---0

0----0---0

12---8---3

x----x---0

and then..."I don't know which way...

0---0----0

6---8----1

0---0----0

0---0----0

8---10---3

x---x----x

 

Thats all I can do for now. Will finish later

 

Thanks for this. It's far better than all the others out there. Have you completed the chorus yet?

 

 

Hey Kapone,

 

I'm also working on a tab to play Til Kingdom Come. I've been using the Japanese Acoustic Set that Coldplay played and so far you are dead on with the verses. I'm stuck on a couple of chords in the song but I'm gonna try to figure it out today.

 

The chorus kinda goes like this...

"For you I'd wait til Kingdom come..." to "And say you'll come and set me free..." the chords are

0----0

6----1

0----0

0----0

8----3

X----X

 

I could be wrong though, there seems to be a chord change during the "set me free..." part.

 

And now I'm stuck on "And say you'll wait and wait for me"...

Any ideas?

 

That helped a lot. I just watched the Pepsi Smash performance here: http://music.yahoo.com/ar-303082-videos--Coldplay and I think I figured out the remaining chords:

 

For you I'd wait til Kingdom come

0----0

6----1

0----0

0----0

8----3

X----X

 

Until my day my day is done

0----0

6----1

0----0

0----0

8----3

X----X

 

And say you'll come And set me free

0----0----0

6----8----10

0----0----0

0----0----0

8----10---12

X----X----X

 

Just say you'll wait you'll wait for me

0----0----0

8----6----1

0----0----0

0----0----0

10---8----3

X----X----X

 

If that's correct then the song is done.

 

Yeah, you got it man. Sweet job. ha ha, i really wished i had that yahoo video. I've been trying to figure out this song for a day straight with that other video.

 

I don't know though, this chord seems too high for the song

0

10

0

0

12

X

 

I know it's right cause I saw it in the video but it doesn't sound right when I play it....hmmm....i'll have to work on it some more.

Link to post
Share on other sites

Yeah, you got it man. Sweet job. ha ha, i really wished i had that yahoo video. I've been trying to figure out this song for a day straight with that other video.

 

I don't know though, this chord seems too high for the song

0

10

0

0

12

X

 

I know it's right cause I saw it in the video but it doesn't sound right when I play it....hmmm....i'll have to work on it some more.

 

Well I couldn't have done it without you or Kapone. :D

 

Yes, I thought this chord was too high for the song as well but it's what's played and sounds right.

 

0

10

0

0

12

X

 

 

I just tabbed it out in an easier to follow format. Let me know if I went wrong anywhere.

 

       654321
Tuning: CACGBE


Intro:

E-----0-----0
B-----1-----1
G-----0-----0
C-----0-----0
A-----3-----3
C--0--x--0--x


Verse 1:

  Steal my heart and hold my tongue
E--0-----0--0---------0----0--0
B--1-----3--5---------5----3--1
G--0-----0--0---------0----0--0
C--0-----0--0---------0----0--0
A--3-----5--7---------7----5--3
C--x-----x--x---------x----x--x

  I feel my time, my time has come
E----0----0--0--------0----0---0
B----1----3--5--------5----3---1
G----0----0--0--------0----0---0
C----0----0--0--------0----0---0
A----3----5--7--------7----5---3
C----x----x--x--------x----x---x

  Let me in, un - lock the door
E--0---0--0--------0-----0--0
B--1---3--5--------5-----3--1
G--0---0--0--------0-----0--0
C--0---0--0--------0-----0--0
A--3---5--7--------7-----5--3
C--x---x--x--------x-----x--x

 I've ne - ver felt this way be - fore
E------0----0---0----0----0---0----0
B------8----5---6----3----5---0----1
G------0----0---0----0----0---0----0
C------0----0---0----0----0---0----0
A------10---7---8----5----7---2----3
C------x----x---x----x----x---x----x


Middle 8:

  The wheels just keep on turn - ing
E------0-----------0--------------0
B------10----------6--------------1
G------0-----------0--------------0
C------0-----------0--------------0
A------12----------8--------------3
C------x-----------x--------------x

  The drummer be - gins to drum
E------0------------0-------0
B------10-----------6-------1
G------0------------0-------0
C------0------------0-------0
A------12-----------8-------3
C------x------------x-------x

  I don't know which way I'm go - ing
E----------0----------0------------0
B----------10---------6------------1
G----------0----------0------------0
C----------0----------0------------0
A----------12---------8------------3
C----------x----------x------------x

  I don't know which way I've come
E----------0----------0--------0
B----------6----------8--------1
G----------0----------0--------0
C----------0----------0--------0
A----------8----------10-------3
C----------x----------x--------x


(played over) Solo:

E--0--0--0--0--0---
B--1--3--5--3--1---
G--0--0--0--0--0---
C--0--0--0--0--0---
A--3--5--7--5--3---
C--x--x--x--x--x--0


Verse 2:

  Hold my head in - side your hands
E--0----0--0---------0----0----0
B--1----3--5---------5----3----1
G--0----0--0---------0----0----0
C--0----0--0---------0----0----0
A--3----5--7---------7----5----3
C--x----x--x---------x----x----x

  I need some - one who un - der - stands
E----0----0------0-------0----0-----0
B----1----3------5-------5----3-----1
G----0----0------0-------0----0-----0
C----0----0------0-------0----0-----0
A----3----5------7-------7----5-----3
C----x----x------x-------x----x-----x

  I need some - one, some - one who hears
E----0----0------0-----------0----0--0
B----1----3------5-----------5----3--1
G----0----0------0-----------0----0--0
C----0----0------0-----------0----0--0
A----3----5------7-----------7----5--3
C----x----x------x-----------x----x--x

  For you, I've wai - ted all these years
E------0----0----0-----0---0---0-----0
B------8----5----6-----3---5---0-----1
G------0----0----0-----0---0---0-----0
C------0----0----0-----0---0---0-----0
A------10---7----8-----5---7---2-----3
C------x----x----x-----x---x---x-----x


Chorus:

  For you I'd wait, 'til kingdom come
E--------------0------------------0
B--------------6------------------1
G--------------0------------------0
C--------------0------------------0
A--------------8------------------3
C--------------x------------------x

  Until my day, my day is done
E-----------0--------------0
B-----------6--------------1
G-----------0--------------0
C-----------0--------------0
A-----------8--------------3
C-----------x--------------x

  And say you'll come and set me free
E-----------------0--------0------0
B-----------------6--------8------10
G-----------------0--------0------0
C-----------------0--------0------0
A-----------------8--------10-----12
C-----------------x--------x------x

  Just say you'll wait,    you'll wait for me
E------------------0-----0------------------0
B------------------8-----6------------------1
G------------------0-----0------------------0
C------------------0-----0------------------0
A------------------10----8------------------3
C------------------x-----x------------------x


(played over) Solo:

E--0--0--0--0--0---
B--1--3--5--3--1---
G--0--0--0--0--0---
C--0--0--0--0--0---
A--3--5--7--5--3---
C--x--x--x--x--x--0


Verse 3:

  In your tears and in your blood
E--0--0----0---------0----0--0
B--1--3----5---------5----3--1
G--0--0----0---------0----0--0
C--0--0----0---------0----0--0
A--3--5----7---------7----5--3
C--x--x----x---------x----x--x

  In your fire and in your flood
E--0--0----0--------0--0----0
B--1--3----5--------5--3----1
G--0--0----0--------0--0----0
C--0--0----0--------0--0----0
A--3--5----7--------7--5----3
C--x--x----x--------x--x----x

  I hear you laugh, I heard you say
E----0----0---0--------0-----0---0
B----1----3---5--------5-----3---1
G----0----0---0--------0-----0---0
C----0----0---0--------0-----0---0
A----3----5---7--------7-----5---3
C----x----x---x--------x-----x---x

  I would - n't change a  sin - gle thing
E----0-------0---0------0--0-----0---0
B----8-------5---6------3--5-----0---1
G----0-------0---0------0--0-----0---0
C----0-------0---0------0--0-----0---0
A----10------7---8------5--7-----2---3
C----x-------x---x------x--x-----x---x


Middle 8:

  The wheels just keep on turn - ing
E------0-----------0--------------0
B------10----------6--------------1
G------0-----------0--------------0
C------0-----------0--------------0
A------12----------8--------------3
C------x-----------x--------------x

  The drummer be - gins to drum
E------0------------0-------0
B------10-----------6-------1
G------0------------0-------0
C------0------------0-------0
A------12-----------8-------3
C------x------------x-------x

  I don't know which way I'm go - ing
E----------0----------0------------0
B----------10---------6------------1
G----------0----------0------------0
C----------0----------0------------0
A----------12---------8------------3
C----------x----------x------------x

  I don't know what I've be - come
E----------0---------0---------0
B----------6---------8---------1
G----------0---------0---------0
C----------0---------0---------0
A----------8---------10--------3
C----------x---------x---------x


Chorus:

  For you I'd wait, 'til kingdom come
E--------------0------------------0
B--------------6------------------1
G--------------0------------------0
C--------------0------------------0
A--------------8------------------3
C--------------x------------------x

  Until my day, my day is done
E-----------0--------------0
B-----------6--------------1
G-----------0--------------0
C-----------0--------------0
A-----------8--------------3
C-----------x--------------x

  And say you'll come and set me free
E-----------------0--------0------0
B-----------------6--------8------10
G-----------------0--------0------0
C-----------------0--------0------0
A-----------------8--------10-----12
C-----------------x--------x------x

  Just say you'll wait,    you'll wait for me
E------------------0-----0------------------0
B------------------8-----6------------------1
G------------------0-----0------------------0
C------------------0-----0------------------0
A------------------10----8------------------3
C------------------x-----x------------------x

  Just say you'll wait,    you'll wait for me
E------------------0-----0------------------0
B------------------8-----6------------------1
G------------------0-----0------------------0
C------------------0-----0------------------0
A------------------10----8------------------3
C------------------x-----x------------------x

  Just say you'll wait,    you'll wait for me
E------------------0-----0------------------0
B------------------8-----6------------------1
G------------------0-----0------------------0
C------------------0-----0------------------0
A------------------10----8------------------3
C------------------x-----x------------------x

Link to post
Share on other sites

 

Thanks a lot. It looks like the above is correct aside from that bass add-on in the chorus (580060, etc.) which I didn't see him implement in the Pepsi Smash video but I did hear in the studio version. I'll try it out for myself tomorrow

 

I'll upload our compiled tab on Ultimate-Guitar.com, at some point, and give you and Acoustiks equal credit.

 

By the way, does anyone know how to record that Pepsi Smash performance?

Link to post
Share on other sites

I've never felt like...

0----0----0----0----0-----0----0

8----5----6----3----5-----0----1

0----0----0----0----0-----0----0

0----0----0----0----0-----0----0

10---7---8----5-----7----2----3

x----x----x----x----x-----x----0

 

Oh, one more thing. After watching the video again, I think the chord is

 

0 instead of

0

0

0

3

X

 

 

0

0

0

0

2

X

 

It sounds a little better to me. But I could be wrong

Link to post
Share on other sites

requesting Life is for living live from the 2003 dvd if you would be nice enough to do that, your tabs kick ass. PS. I know its piano live but if i remember its guitar on the CD, so if you could maybe just do the Album version with the ending of the live one. Haha Im making things complicated

Link to post
Share on other sites

----------------------------------------------------

---------3------------3-------------3---------1----

---------3------------3-------------3---------2----

----------------------------------------------------

--1----------0-------------------------------------

------------------3------3------1------1----------

 

----------------------------------------------

--------4-----------4------------3------4---

--------3-----------3------------3------3---

--1---------0--------------------------------

----------------3--------3---1---------------

----------------------------------------------

 

singin ah.........

x---x

1---4

2---3

3---1

3---x

1---x

 

(watching dvd to get jonnys)

Link to post
Share on other sites

Hye your doing a great job, I trust coming and reading this more than i do trust actuall tab sites so your doing a great job. You couldnt use your magic with Shiver could you?

Link to post
Share on other sites

Create an account or sign in to comment

You need to be a member in order to leave a comment

Create an account

Sign up for a new account in our community. It's easy!

Register a new account

Sign in

Already have an account? Sign in here.

Sign In Now



×
×
  • Create New...