Jump to content
🚀COLDPLAY PREMIERE THEIR NEW SINGLE 'HIGHER POWER' FROM SPACE✨

Recommended Posts

  • Replies 773
  • Created
  • Last Reply

Top Posters In This Topic

I know this was a thread earlier in this forum..but i never found a good version of A Message Electric here... i searched and found something..but im not even sure that its right..is the electric also in a wierd tuning or is it stanrard??im jsut really confused when it comes to the electric part for that song..so i was wondering if anyone has it or could give it a try.. thanks

Link to post
Share on other sites
Who are you? And your Politik is wrong lol. This is kapones place to post tabs.

 

 

don't worry maj039, even if you make your own thread, the one-and-only kapone will say you're wrong.

Link to post
Share on other sites
alright here is the tab for "Fix You"... mostly the piano in this song..

 

Coldplay - Fix You

 

Gtr1 (Johnny) (standard tuning, theirs a possibility he might be in Eb)

Gtr2 (?Johnny) (acoustic. Eb tuning or acoustic standard capo third fret)

Piano (chords are in left hand position)

 

 

Piano Intro And Verse

 

1.jpg

 

2.jpg

 

3.jpg

 

4.jpg

 

Chrous (Piano)

 

5.jpg

 

6.jpg

 

7.jpg

 

Interlude

 

Gtr 1 (Johnny)

 

E---------12------11-------12---------11--------12---------

B------12------12------12--------12---------12-------------

G---13-----13------13--------13---------13-----------------

D----------------------------------------------------------------

A----------------------------------------------------------------

E----------------------------------------------------------------

 

E-------11--------12--------11--------------------------------

B----12-------12--------12------------------------------------

G-13-------13-------13----------------------------------------

D----------------------------------------------------------------

A----------------------------------------------------------------

E----------------------------------------------------------------

 

 

you can also play the 1st and 3rd piano chords

in the same melody if you want

 

Verse (Acoustic Gtr in Eb, played over top of piano)

 

E----------------------------------------------------------------

B----------------------------------------------------------------

G---1-1-1-1-1---4-4-4-4-4----9--9---9---9--9------------

D---2-2-2-2-2---6-6-6-6-6---11-11-11-11-11-----------

A---2-2-2-2-2---6-6-6-6-6---11-11-11-11-11-----------

E------------------4-4-4-4-4----9---9--9---9---9-----------

 

E----------------------------------------------------------------

B----------------------------------------------------------------

G--8-8-8-8-8--------------------------------------------------

D--9-9-9-9-9--------------------------------------------------

A--9-9-9-9-9--------------------------------------------------

E--7-7-7-7-7--------------------------------------------------

 

or you can play this (Gtr 3 Acoustic, Standard Tuning, Capo Third Fret)

 

E----------------------------------------------------------------

B--1-1-1-1-1-----------------1-1-1-1-1---------------------

G-------------------------------2-2-2-2-2----2-2-2-2-2-----

D--2-2-2-2-2--2-2-2-2-2---2-2-2-2-2----2-2-2-2-2-----

A--3-3-3-3-3--3-3-3-3-3------------------------------------

E----------------------------------------------------------------

 

Chrous (Piano, Gtr 3 Acoustic Eb)

 

5.jpg

 

6.jpg

 

7.jpg

 

Gtr 3 Acoustic Eb Tuning

 

E----------------------------------------------------------------

B----------------------------------------------------------------

G-6-6-6-6-6---4-4-4-4-4---9-9-9-9-9-8-8-8-8-8--------

D-7-7-7-7-7---6-6-6-6-6---9-9-9-9-9-9-9-9-9-9--------

A-7-7-7-7-7---6-6-6-6-6---9-9-9-9-9-9-9-9-9-9--------

E-5-5-5-5-5---4-4-4-4-4---7-7-7-7-7-7-7-7-7-7--------

 

E----------------------------------------------------------------

B----------------------------------------------------------------

G-6-6-6-6-6---4-4-4-4-4--9-9-9-9-9---6-6-6-6-6-------

D-7-7-7-7-7---6-6-6-6-6--9-9-9-9-9---7-7-7-7-7-------

A-7-7-7-7-7---6-6-6-6-6--9-9-9-9-9---7-7-7-7-7-------

E-5-5-5-5-5---4-4-4-4-4--7-7-7-7-7---5-5-5-5-5-------

 

E----------------------------------------------------------------

B----------------------------------------------------------------

G-9-9-9-9-9---------------------------------------------------

D-9-9-9-9-9---------------------------------------------------

A-9-9-9-9-9----------------------------------------------------

E-7-7-7-7-7----------------------------------------------------

 

or Gtr 3 Acoustic Standard Tuning Capo Third Fret

 

E-----------------3-3-3-3-3-----------------------------------

B-----------------3-3-3-3-3-----------------------------------

G-4-4-4-4-4---------------------------------------------------

D-3-3-3-3-3---------------------------------------------------

A-3-3-3-3-3----2-2-2-2-2-----------------------------------

E-1-1-1-1-1----3-3-3-3-3----------------------------------- x2

 

E----------------------------------------------------------------

B--1------------------------------------------------------------

G----------------------------------------------------------------

D--2------------------------------------------------------------

A--3------------------------------------------------------------

E----------------------------------------------------------------

 

Guitar Solo

 

Gtr 1 (Johnny) (electric. w/delay)

 

E----------------------------------------------------------------

B-4-4-4-4-4-4-4-4-4-4-4-4--11-11-11-11---------------

G----------------------------------------------------------------

D----------------------------------------------------------------

A----------------------------------------------------------------

E---------------------------------------------------------------- x3

 

 

E----------------------------------------------------------------

B-4-4-4-4-----3-3-3-3-3-------------------------------------

G----------------------------------------------------------------

D----------------------------------------------------------------

A----------------------------------------------------------------

E----------------------------------------------------------------

 

play abouve four times.. then Johhny starts singing at the begging of the 5th time, then play four more times, so in total its played 17 times.. or for 2:32

 

Outro Chourus

 

(Piano)

 

5.jpg

 

6.jpg

 

7.jpg

 

thats all wrong man... not even close...

Link to post
Share on other sites

Dude lol its still not right. First yes all guitars are tuned down half a step to make the standard tuning flats. Second the solo is

 

e| 0-0-0-0-0-0-0-0-0-0-0-0-0-0-0-0-0-0-0

B| 5-5-5-5-5-5-5-5-5-12-12-12-12-5-5-5-5

 

And last part goes down to 4 and the rest is wrong. I can upload the book but this is kapone's section man so go make your own. Expecially since their wrong.

 

 

 

 

 

 

 

A Message please... Id give you my backup 72 Thinline :)

Link to post
Share on other sites
im not a super guitar expert or anything..but isnt all of the guitars in fix you tuned down half a step? i dont think theres a standard tuning guitar most of the piano chords are also minor or major flats i think.. =/

 

the acoustic is.... in all respects it donsnt matter so much since Eb is just a half a step down from standard.. so a fret to the left... so from eb to standard, jhonnys solo would be (eb) 444444444111111 then to (standard) 55555555121211212.. etc... guitars work in half steps... a note on a certian fret will be the same note higher up

 

 

and to "improvisation" dont think your right all the time.. and ive read alot of these tabs by "kapone" on this thread and most of them are very accurute... taken from the book.. but you see, you have a habit of making changes where thier not needed... the offical book makes very small mistakes and if thier is one you can tell beoucse it only off by a very little you can tell what is supposed to be played.. as well as watching videos of them preforming live, exept that they play things diffrent sometimes... also remember that their is more then one "way" to play a song... but their is a wrong way as well... but accutally try it carefully before saying it is wrong... and yes i will make my own thread thank you very much, where every tab will be as accurute as possible... thank you.... oh and im not a "nub" ive been playing guitar for 2 years self tought with some baisci theory ass well as at keast 4 years of piano lessons/theory/practice...

Link to post
Share on other sites
but accutally try it carefully before saying it is wrong... and yes i will make my own thread thank you very much' date=' where every tab will be as accurute as possible... thank you.... oh and im not a "nub" ive been playing guitar for 2 years self tought with some baisci theory ass well as at keast 4 years of piano lessons/theory/practice...[/quote']

 

 

Err..... Darn I wouldn’t say this if I were you. Just makes you look dumb. Face it you can’t tab ok? It’s not the end of the world. Just keep trying until you can and then post. And no if you were smart you’d realize that tuning a half step down allows you to play certain things that standard wont. And I’ve played this song live over a hundred times. I know what the hell im talking about. And 2 years of self taught guitar is nothing. And dont go talking trash to me when you cant even speak english right. And did you even try mine? No huh? Well if you did then you'd see im right and you'd shut your mouth. So take your own advice.

Link to post
Share on other sites
And no if you were smart you’d realize that tuning a half step down allows you to play certain things that standard wont. And I’ve played this song live over a hundred times. I know what the hell im talking about. And 2 years of self taught guitar is nothing. And dont go talking trash to me when you cant even speak english right. And did you even try mine? No huh? Well if you did then you'd see im right and you'd shut your mouth. So take your own advice.

 

yes Eflat lets you play notes a half step lower.. for sure it makes a diffrence.. however if your in standard you just play a fret over to the left.. arltertivly you can use a capo if in E flat.... (to go to standard) obivisoully you cant go to far or it will sound terrible (say the 1st fret) but from 5 in standard to 4 in Eb is exactly the same note!... i don't doubt youve played this song 100 thousand times live.. not for one second.. i did an enitre thread search and theire is only like 2 or 3 fix you tabs on this whole thread and it dosnt show one by you... or even a complete one for that matter (piano, interlude) if i can find il give it a try but it dosnt appear to be anywhere... oh and i dindt come here to start a fight... so,... please calm down

Link to post
Share on other sites

Uhm i have question.. Can anybody figure the solo and the basstab for 'I can't get you out of my head' out ? The version Coldplay peformed @ Glastonbury 2005.

 

And anyone who can figure the basstab for 'swallowed in the sea' out ?

 

Uhm thanks in advance :)

Link to post
Share on other sites
  • 4 weeks later...

UPDATED KAPONE TAB LIST

 

Updated Guide...

--------------------------------------------------

PAGE 1

Green Eyes (Kapone's First Version - Revised Version on Page 29)

Trouble (VH1 Acoustic)

Fix You (Acoustic)

Swallowed in the Sea (Acoustic)

A Message (Acoustic)

 

PAGE 2

Help is 'round the Corner

The Scientist (Electric)

Yellow (Acoustic)

 

PAGE 3

Warning Sign

See You Soon

 

PAGE 4

Don't Panic (Acoustic & Electric)

'Till Kingdom Come

 

PAGE 5

Sparks

Fix You (Jonny's Bridge Part Only)

Scientist Acoustic

 

PAGE 7

Fix You (Full Band - Acoustic)

Spies

Speed of Sound (Acoustic)

 

PAGE 8

Easy to Please

Brothers and Sisters (Trouble Single)

 

PAGE 9

GPASUYF (Acoustic)

We Never Change (+Revised)

 

PAGE 11

Careful Where You Stand (Intro/Beginning only)

 

PAGE 13

AROBTTH

High Speed (Acoustic)

 

PAGE 15

Have Yourself A Merry Little Christmas (Transcribed)

Hardest Part (Acoustic)

Square One (Electric & Acoustic)

 

PAGE 17

Scientist Acoustic (chord fix/revision)

 

PAGE 18

White Shadows (Acoustic)

 

PAGE 21

Talk (Jonny's Solo)

Gravity (Acoustic)

 

PAGE 29

Ring of Fire (Chris)

Green Eyes (Revised)

Link to post
Share on other sites

Create an account or sign in to comment

You need to be a member in order to leave a comment

Create an account

Sign up for a new account in our community. It's easy!

Register a new account

Sign in

Already have an account? Sign in here.

Sign In Now



×
×
  • Create New...