Jump to content
🪐CHECK OUT THE LATEST NEWS AND RUMOURS ON COLDPLAY'S UPCOMING ALBUM🪐

Recommended Posts

Low

 

Low

Standard tuning

Note: these are the notes but not how many notes there really is

 

Intro/chorus

-----------------------------------------------------------------------------------------------

-----------------------------------------------------------------------------------------------

-7b--7b--7b--7b--7b--7b--7b--7--7--7--7--7--7--7--7-------------------------------

-----------------------------------------------------------------------------------------------

-----------------------------------------------------------------------------------------------

-----------------------------------------------------------------------------------------------

Verse

-----------------------------------

-----------------------------------

-----------------------------------

-----------------------------------

-10---9---5---7---5---7--------

-12--10--7---8---5---0--------

 

Tell me if you want more

Link to post
Share on other sites
  • Replies 773
  • Created
  • Last Reply

Top Posters In This Topic

Low

 

Coldplay-Low

 

 

C 0 3 2 0 1 0

A7sus4 0 0 2 0 3 0

Em7 0 2 2 0 3 0

A7 0 0 2 0 2 0

Em 0 2 2 0 0 0

D 0 0 0 2 3 2

Bm 2 2 4 4 3 2

G5 3 0 0 0 3 3

A7/G 3 0 2 0 2 0

G 3 2 0 0 0 3

 

C A7sus4 Em7 C

 

Em D Bm C A7sus4 Em

 

C A7sus4 Em7 A7 C

 

G5 C A7sus4

 

 

Enjoy

 

Matt

Link to post
Share on other sites

sleeping sun

 

I think ive got it figured out

 

11-11-12-13-13-11

6-6-7-8-8-6

9-9-10-11-11-9

4-4-5-6-6-4

 

 

intro is the first chord being strummed.verses and chorus are all 4 in that order.

please correct me if im wrong but im 90% sure on this.

Link to post
Share on other sites

capone, are you saying the tab for see you soon on page three is correct all the way through? cause i played it and it seemed like something was missing, maybe another chord? i'm not sure if you said it was finished or not....

Link to post
Share on other sites

erm i hope you dont mind me posting this here but i figured its probably the best place...

im learning to play guitar but when i look at the tab thing above each chord on PVG sheets - what does the curved line mean over the frets?

Link to post
Share on other sites
  • 2 weeks later...
SQUARE ONE (ELECTRIC)

 

Tuning: Standard

 

PART:1

-------------------------------8-------------

-----------------8---------------------------

---------------------------------------------

---10----------------------------------------

----------------------------------------------

----------------------------------------------

 

^with a volume pedal or one of Jonny's funky fade pedals

 

PART:2

While Chris starts singing, Jonny lightly picks these randomly with a lot of delay and the funky fade thing

 

---18----------------------------------------

-------------16------------------------------

------------------------17-------------------

----------------------------------------------

----------------------------------------------

----------------------------------------------

 

PART 1 again

 

PART: 3

 

Here, Jonny mutes the strings around the ones he is playing and hits them all to make a kind of shreddy sound

 

-------------------------------------------

-------------------------------------------

-------------------------------------------

-------------------------------------------

---------------8---8---8---10---10------

--8---8---8-------------------------------

 

^three times

 

-------------------------------------------

-------------------------------------------

-------------------------------------------

-----------------8---8---8---10---10----

-------------------------------------------

--8---8---8-------------------------------

 

^once

 

PART:4

 

-------------------------------------------

---9p8-----------9p8--------------------

----------10p8-----------10p8-----------

-------------------------------------------

-------------------------------------------

-------------------------------------------

 

repeated. You'll hear how many times

 

-------------------------------------------

----10p8-------------10p8---------------

-------------10p8--------------10p8-----

-------------------------------------------

-------------------------------------------

-------------------------------------------

 

PART: 5

 

Under the surface...

 

Fade/Volume pedal again

 

-----------------------------------------------------------------------------------

--11------------------------------------------------------------------------------

----------7-----------------------------------------------------------------------

----------7-----------------------------------------------------------------------

-----------------------------------------------------------------------------------

---------------8---8---8----11-----11--11--11----8---8---8---11--11--11--11

 

********************************************************

when it goes,

---

---

---

-7-

-7-

---

---

in the album version, Jonny goes

---

---

---

-7-

-7-

-5-

---

 

but live, he does it like I put it first

 

********************************************************

 

then

-----------------------------------------------------------------------------------

--11------------------------------------------------------------------------------

---------7b8b7-------------------------------------------------------------------

----------------------------------------------------------------------------------

-----------------------------------------------------------------------------------

---------------8---8---8----11-----11--11--11----8---8---8----11--11--11----

 

-----------------------------------------------------------------------------------

-----------------------------------------------------------------------------------

-----------------------------------------------------------------------------------

-----------------------------------------------------------------------------------

-------------------10---10---10--------------------------------------------------

-11---11---11--------------------11-----3-----3----3----6----6----6----3-----

 

-----------------------------------------------------------------------------------

-----------------------------------------------------------------------------------

-----------------------------------------------------------------------------------

-----------------------------------------------------------------------------------

-----------------------------------------------------------------------------------

--------8-------8------8-----11-------11----11----11----8-----8-----8-----11-

 

 

 

PART:6

 

--18--18--------------------------------------------------------------------------

------------16--16----16---------------------------------------------------------

-------------------------------15---15---14---15----17-------------------------

-----------------------------------------------------------------------------------

--------------------------------------------------------------17------------------

-----------------------------------------------------------------------------------

 

^twice

 

Then, its Part 3, Part 4, Part 3, Part 4, Part 6 (6 with fade pedal)

 

 

With all these last parts, there are some variations. Not in what Jonny plays but for how long he plays it. Its easy to hear

 

SQUARE ONE (ACOUSTIC)

 

The bit at the end can be played in two ways. Here are both. The first is how I like it and how it sounds on the album

 

Tuning: EADGCD#

 

0----0----0-----0

0----0----0-----0

5----1----8-----7

6----3----10----0

6----3----10----8

4----1----8-----6

 

OR

 

Tuning: EADGBD#

 

0---0---0-----0

4---1---8-----6

5---1---8-----7

6---3---10----8

6---3---10----8

4---1---8-----6

 

Are you sure it's 10, 8, 8 for the very first part? I always thought that the B string was a little higher.

Link to post
Share on other sites

PART:1

--------------------------------------------

-------------13---------------------------

--------12-----------------------------------

---10----------------------------------------

----------------------------------------------

----------------------------------------------

 

just play it like that.. i think thats how jonny play.

Link to post
Share on other sites

Create an account or sign in to comment

You need to be a member in order to leave a comment

Create an account

Sign up for a new account in our community. It's easy!

Register a new account

Sign in

Already have an account? Sign in here.

Sign In Now



×
×
  • Create New...