Jump to content
⭐️DISCUSS COLDPLAY'S RUMOURED UPCOMING ALBUM!🪐
Kapone

Kapone's Tabs

Recommended Posts

whaha It's Dutch ;) I'm for the integration:p also on this forum ;) :laugh4:

 

I thought it sounded a bit "cheesy"!!:rolleyes:

Share this post


Link to post
Share on other sites

I have a challenge, Murder...

 

i know its Bm to D to A6 or something like that need some improvement

Share this post


Link to post
Share on other sites

A Message

 

just if anyone needed the acoustic album part for A Message

 

 

 

 

 

====================

A MESSAGE (ACOUSTIC)

====================

 

Album Version

Standard tuning

 

Capo 1

 

 

chords:

 

C - X32010

Em/C - 022010

C/G - 320010

F - 003210

Am - 002210

G - 320033

Dm - 000231

 

 

C Am

My song is love

 

C Am C/G

Love to the love thats shown

 

C Am

And it goes up

 

 

F C C/G

Clearly, You don't have to be alone

 

C Am

Your heavy heart

 

C Am C/G

Is made of stone

 

C Am

And its so hard to see

 

 

F C C/G

Clearly, you don't have to be on your own

 

 

F C C/G

You don't have to be on your own

 

 

Dm C G

And I'm not gonna take it back

 

Dm C G

And I'm not gonna say I don't know mean that , oh

 

Dm C G

Your a target that im aiming at

 

 

F C C/G

And I'll get my message home

 

 

 

C Am

My song is love

 

C Am C/G

My song is love, I know

 

C Am

But I'm on fire for you, clearly

 

F C C/G

You don't have to be on your own

 

F C C/G

You don't have to be on your own

 

 

 

Dm C G

And I'm not gonna take it back

 

Dm C G

And I'm not gonna say I don't mean that, oh

 

Dm C G

Your a target that im aiming at

 

F C C/G

And I'm nothing on my own

 

F C C/G

Got to get that message home

 

Dm C G

And I'm not gonna stand and wait

 

Dm C G

Not gonna be leave it until its much too late, oh

 

Dm C G

On a platform I'm gonna stand and say

 

F C C/G

That I'm nothing on my own

 

F C C/G

And I love you, please come home

 

 

 

C Am

My song is love, is love I know

 

F C C/G C

And I've got to get that message home

 

 

 

 

also the official tab book has this played in some other lower tuning...

perhaps Kapone could tab this version for us.. as I cant seem to find the

sheet music anymore.. however this sounds completely accurate only Coldplay will know you arnt playing it "right" lol it sounds just fine, i promise.. lol

 

 

hmm looks like the formatting got messed up from copying/pasting.. well im sure youll get the idea.. listen to the song for chord changes/strumming pattern

Share this post


Link to post
Share on other sites

also if anyone needs moses, if its up arleady; sorry

 

 

======

Moses

======

 

(This is played by Chris on electric guitar, or acoustic)

 

e--0---------0------------0----------2-------4

B--0---------0------------0----------3-------5

G--4---------2------------9----------2-------4

D--4---------4------------9----------0-------0

A--2---------4------------7----------0-------0

E--x---------x------------x----------0-------x

Bsus4 F#maj7 Esus4 D Emaj

 

Intro: Bsus4 F#maj7 Esus4 x5

 

 

Verse1:

 

Bsus4 F#maj7 Esus4

come on now, don't you want to see

 

Bsus4 F#maj7 Esus4

this thing that's happening to me

 

Bsus4 F#maj7 Esus4

like moses has power over sea

 

Bsus4 F#maj7 Esus4

so you've got power over me

 

Intro x2

 

Verse 2 (same chords)

come on now don't you want to know

you're a refuge, somewhere i can go

you're air that, air that i can breathe

you're my golden opportunity

 

Chorus:

D Emaj

and oh, oh yes i would

D Emaj

if i only could

D Emaj

and you know i would

D Emaj

and baby i, oh baby i

 

Bsus4

i wish

 

 

 

 

 

 

(This is played by Johnny, on Electric guitar)

 

 

Intro / Main Riff

 

E-12----12-11----------11-----11----11--12----12-11-----------------------|

B----12--------12--10------12----12--------12--------12------12----12-----|

G--------------------------------------------------------13-----13----13---------|

D------------------------------------------------------------------------------------|

A------------------------------------------------------------------------------------|

E------------------------------------------------------------------------------------|

 

E-----12----12-11----------11-----11----11--12----12-11--------------------|

B-12-----12--------12--10------12----12--------12--------12------12--------|

G-------------------------------------------------------------------13------11-13-|

D-------------------------------------------------------------------------------------|

A-------------------------------------------------------------------------------------|

E-------------------------------------------------------------------------------------|

 

E-------------------------------------------------------------------------|

B-12---------------------------------------------------------------------|

G----13-11--------------------------------------------------------------|

D-------------------------------------------------------------------------|

A-------------------------------------------------------------------------|

E-------------------------------------------------------------------------|

 

Guitar Solo

 

E-19----19-19--------19------19-----19----19-----19--------19------19-----|

B----16--------16-17-----17------17----17----16------16-17-----17------17-|

G-------------------------------------------------------------------------|

D-------------------------------------------------------------------------|

A-------------------------------------------------------------------------|

E-------------------------------------------------------------------------|

 

E-19----19-----19--------21------21-----21----19-----19------19------19---|

B----17----16------16s19-----17------17----17----17------17------17-------|

G-------------------------------------------------------------------------------------|

D-------------------------------------------------------------------------------------|

A-------------------------------------------------------------------------------------|

E-------------------------------------------------------------------------------------|

 

E----19----17-----------------------------------------------------------|

B-17----17--------------------------------------------------------------|

G-------------------------------------------------------------------------|

D-------------------------------------------------------------------------|

A-------------------------------------------------------------------------|

E-------------------------------------------------------------------------|

 

The song ends on a gentle sweep of the Bsus4 chord.

Share this post


Link to post
Share on other sites

sorry guys; also The Scientest Acoustic;

 

as played on KCRW Radio quite awile ago.....

 

http://ultimate-guitar.com/tabs/c/coldplay/the_scientist_acoustic_crd.htm

 

=============================

The Scientest (KCRW ACOUSTIC

=============================

 

(CAPO ON 3RD FRET)

 

 

Bm7 (x20202)

G (320003)

D (xx0232)

Dsus2 (xx0230)

A (x02220)

A7 (x02020)

 

 

 

INTRO: | Bm7 | G | D | Dsus2 |

 

| Bm7 | G | D | Dsus2 |

 

 

 

Bm7 G D Dsus2

V1: come up to meet you, tell you i'm sorry, you don't know how lovely you are

Bm7 G D Dsus2

i had to find you, tell you i need you, tell you i'll set you apart

Bm7 G D Dsus2

tell me your secrets and ask me your questions, oh lets go back to the start

Bm7 G D Dsus2

running in circles, coming in tales, heads are a science apart

 

 

 

G D Dsus2

C1: nobody said it was easy, it's such a shame for us to part

G D Dsus2 A

nobody said it was easy, no-one ever said it would be this hard

A7 (D)

oh take me back to the start

 

 

 

LINK 1: | D | G | D | D |

 

| Bm7 | G | D | Dsus2 |

 

 

 

Bm7 G D Dsus2

V2: i was just guessing in numbers and figures, pulling the puzzles apart

Bm7 G D Dsus2

questions of science, science and progress, do not speak as loud as my heart

Bm7 G D Dsus2

tell me you love me, come back and haunt me, oh and i rush to the start

Bm7 G D Dsus2

running in circles, chasing our tales, coming back as we are

 

 

G D Dsus2

C2: nobody said it was easy, oh it's such a shame for us to part

G D Dsus2 A

nobody said it was easy, no-one ever said it would be so hard

A7 (D)

oh take me back to the start

 

 

 

LINK 2: | D | G | D | D |

 

| Bm7 | G | D | D |

 

 

 

 

OUTRO:

 

Bm7 G D

ah - ooo-oo-oo-oo-ooo

 

Bm7 G D

ah - ooo-oo-oo-oo-ooo

Bm7 G D

oh - ooo-oo-oo-oo-ooo

Bm7 G D

oh - ooo-oo-oo-oo-ooo

 

 

 

 

 

thats 100% accurate to the KCRW version...

Share this post


Link to post
Share on other sites

Accurate X & Y Tab...

 

if the formatting does not show up right go here

 

 

 

http://ultimate-guitar.com/tabs/c/coldplay/x_and_y_tab.htm

 

 

 

 

=====

X & Y

=====

 

 

[email protected]

100% Accurate from the book

 

EADGBE

 

Verse (intro)

 

F#m Gmaj7 Bm A6 Eadd9/G# Gmaj7

e|-2----2----2----2-| x4 |-2----2-| x2

b|-2----0----3----2-| |-5----0-|

g|-2----0----4----2-| |-4----0-|

d|-4----0----4----2-| |-2----0-|

a|-4----x----2----0-| |-x----x-|

e|-2----3-----------| |-4----3-|

 

F#m Gmaj7 Bm A6

Trying hard to speak and fighting with my weak hand.

Driven to distraction, it's all part of the plan.

When Something is broken and you try to fix it.

Trying to repair it, anyway you can. Eadd9/G#

 

Verse

 

F#m Gmaj7 Bm A6 F#7 Gmaj7 Bm A6

|-2----2----2----2-| x2 |-2----2----2----2-| x2

|-2----0----3----2-| |-2----0----3----2-|

|-2----0----4----2-| |-2----0----4----2-|

|-4----0----4----2-| |-4----0----4----2-|

|-4----x----2----0-| |-4----x----2----0-|

|-2----3-----------| |-2----3-----------|

 

lead gtr w/slide, slight dist+echo

 

e| -7/14-

I dive in at the deep end, you become my best friend

7/14- 14\9-

I wanna love you, but I don't know if I can

6/7/9/10\7-7 7/9/10/12\9-9

I know something is broken, and I'm trying to fix it

6/7/9/10\7-7 7/9/10/12\9--10\7

Trying to repair it, any way I can

 

Pre-Chorus

 

E/G# Gmaj7

|-2----2-| x4

|-5----0-|

|-4----0-|

|-2----0-|

|-x----x-|

|-4----3-|

 

e| -10\7- -10\7- -10\7- (two gtrs)

e| -7\4- -2/4- -7\4-

Ooh ooh ooh ooh ooh ooh...

 

Chorus

 

Dadd9 Cadd#4 E7 or G6 E/G#*

|-0----0----0----0-| x2 |-0----0-| x2

|-3----1----3----3-| |-3----5-|

|-2----0----4----1-| |-4----4-|

|-4----4----6----2-| |-5----6-|

|-5----3----x----2-| |-x----x-|

|-----------0----0-| |-x----x-|

 

lead gtr, clean

e|---------0-----------------0-------------------------|

B|-----3-----3-----------1-----1-----------7---5---3---|

G|---2---2-----2-------0---0-----0-------4---4---4---4-|

D|-4-------------4---4-------------4---6---------------|

A|-----------------------------------------------------|

E|-----------------------------------------------------|

 

e|-0---------0---------------0-----------------0-------|

B|---3---3-----3---------3-----3-----------1-----1-----|

G|-----4---4-----4-----2---2-----2-------0---0-----0---|

D|-------------------4-------------4---4-------------4-|

A|-----------------------------------------------------|

E|-----------------------------------------------------|

 

e|------------------0---------0---------------0--------|

B|-----7---5---3-------3---3-----3---------3-----3-----|

G|---4---4---4---4-------4---4-----4-----4---4-----4---|

D|-6-----------------------------------5-------------5-|

A|-----------------------------------------------------|

E|-----------------------------------------------------|

 

e|----------0---------------0--|

B|------3-----3-----------5----|

G|----4---4-----4-------4------|

D|--5-------------5---6--------|

A|-----------------------------|

E|-----------------------------|

 

You and me are floating on a tidal wave...

Together

You and me are drifting into outer space...

And singing

Ooh ooh ooh ooh ooh ooh...

 

Interlude

 

F#m Gmaj7 Bm A6

|-2----2----2----2-| x3

|-2----0----3----2-|

|-2----0----4----2-|

|-4----0----4----2-|

|-4----x----2----0-|

|-2----3-----------|

 

two lead gtrs 1 w/dist

e|-14--14--14--14---15--14---17--17---15--14---17--17-|

B|-x---x---15--14---x---x----x---x----x---x----x---x--|

G|-14--16-----------15--16---19--18---15--16---19--18-|

D|----------------------------------------------------|

A|----------------------------------------------------|

E|----------------------------------------------------|

 

2 w/dist+echo

e|--------------------------------------------------------------------------------------|

B|--------------------------------------------------------------------------------------|

G|--------------------------------------------------------------------------------------|

D|-11b12-11-9--9/16b17--16-16-16\11b12--11\9--9/16b17----16-16--11b12--11\9--9\4b5--4-4-|

A|--------------------------------------------------------------------------------------|

E|--------------------------------------------------------------------------------------|

 

Coda

 

Dadd9 Cadd#4 E7 x2

G6 E/G#* x4

 

two lead gtrs

1 - Chorus Arpeggios, 2 (same time):-

e|-3^2-----3^2-----3^2-----3^2------5^4-----5^4-----|

B|-----3-------3-------1-------1--------3-------3---|

G|-------2-------2-------2-------2--------4-------4-|

D|--------------------------------------------------|

A|--------------------------------------------------|

E|--------------------------------------------------|

 

e|-5^4-----5^4-----3^2-----3^2------3^2-----3^2-----|

B|-----3-------3-------3-------3--------1-------1---|

G|-------4-------4-------2-------2--------2-------2-|

D|--------------------------------------------------|

A|--------------------------------------------------|

E|--------------------------------------------------|

 

e|--5^4-----5^4--------5^4-----5^4-----|

B|------3-------3----------3-------3---|

G|--------4-------4----------4-------4-|

D|-------------------------------------|

A|-------------------------------------|

E|-------------------------------------|

 

You and me are floating on a tidal wave...

Together

You and me are drifting into outer space...

And singing

 

lead 1

e|-3--3--3--3--3--3--3--3--4-4-4-4-4-4-4-4-| x2

B|-3--3--3--3--3--3--3--3--3-3-3-3-3-3-3-3-|

G|-----------------------------------------|

D|-----------------------------------------|

A|-----------------------------------------|

E|-----------------------------------------|

 

lead 2 (same time) w/dist

e|--------0---------------0-| x4

B|----3-----3-----------5---|

G|--4---4-----4-------4-----|

D|5-------------5---6-------|

A|--------------------------|

E|--------------------------|

 

lead 1 (over last 2 of lead 2)

e|-15-15-15-15-15-15-15-15--16-16-16-16-16-16-16-16---15-15-15-15-15-15-15-15--4-4-4-4-4-4-4-4-|

B|-15-15-15-15-15-15-15-15--15-15-15-15-15-15-15-15---15-15-15-15-15-15-15-15--3-3-3-3-3-3-3-3-|

G|---------------------------------------------------------------------------------------------|

D|---------------------------------------------------------------------------------------------|

A|---------------------------------------------------------------------------------------------|

E|---------------------------------------------------------------------------------------------|

 

Ooh ooh ooh ooh ooh ooh...

 

Outro

 

D Am/C E7 G E/G#

|-2----0----0------3----4-|

|-3----1----3------3----5-|

|-2----2----4------4----4-|

|-0----x----6------5----6-|

|------3----x------x----x-|

|-----------0------3----4-|

 

lead (string arr.)

|-2--------------------------------------------------------|

|-3---3---3---3----1---1---1---1----3---3---3---3---|

|-2-2---2---2---2----2---2---2---2----1---1---1---1-|

|-0--------------------------------------------------------|

|------------------3---------------------------------------|

|-----------------------------------0----------------------|

 

|---------------------------------------------------------------|

|-3---3---3---3----3---3---3---3----3---3----3--3--5--7-|

|---1---1---1---1----1---1---1---1----1---1--4--4--4--7-|

|--------------------------------------------4--5--6-----------|

|--------------------------------------------x--x--X-----------|

|--------------------------------------------2--3--4-----------|

Share this post


Link to post
Share on other sites

100% accurate version of spies acoustic.. best tab of spies ive ever seen

 

 

http://ultimate-guitar.com/tabs/c/coldplay/spies_ver2_crd.htm

 

 

===============

SPIES ACOUSTIC

===============

 

 

Tuning:E A C# G B C#

 

CHORDS USED: C#m:9X0990 F#m:2X0220 E6:020120 A:5X0650 G#m11:4X0440

 

Badd9:7X0870 B6/9:7X0890 B/A:5X0860 E6/B:5X0770 F#m13:2X2200 G#m13:4X4400

 

D#m7b5:11.X.12.11.10.0 G#sus4:4X0540 G#add11:4X0540 F#:2X0320

 

Listen for timing, it's kind of complicated

INTRO: C#m

 

VERSE 1:

F#m E6

I awake to find no peace of mind

A G#11

I said "How do you live as a fugitive?"

F#m E6

Down here, where i cannot see so clear

A G#m11

I said "What do i know?" show me the right way to go

 

CHORUS:

F#m G#m11

And the spies came out of the water

A G#m11

And your feeling so bad 'cause you know

F#m E6

That the spies hide out in every corner

A

But you cant touch them no

Badd9

'Cause they're all spies

 

C#m11.... A.... B6/9.. Badd9.. B6/9.. Badd9..

they're just spies

 

 

C#m11.... A.... B6/9.. Badd9.. B6/9.. Badd9..

 

VERSE 2:

F#m E6

I awake to see that no-one is free

A

We're all fugitive's

G#m11

Look at the way we live

F#m E6

Down here, I cannot sleep from fear, no

A

i said "Which way do i turn?"

G#m11

Oh, I forget everything i learn

 

CHORUS:

F#m G#m11

And the spies came out of the water

A G#m11

And your feeling so bad 'cause you know

F#m E6

That the spies hide out in every corner

A

But you cant touch them no

Badd9

'Cause they're all spies

 

C#m11.... A.... B6/9.. Badd9.. B6/9.. Badd9..

they're just spies

 

 

C#m11.... A.... B6/9.. Badd9.. B6/9.. Badd9..

 

BRIDGE:

B/A A E6/B Badd9

And if we don't hide here they're gonna find us

F#m11 G#m13 F#m11 Badd9

And if we don't hide now they're gonna catch us where we sleep

B/A A E6/B Badd9

And if we don't hide here they're gonna find us

D#m7b5.... G#sus4.. G#add11..

 

C#m11.... A.... B6/9.. Badd9.. B6/9.. Badd9.. (x2)

 

OUTRO:

A G#add11

Spies came out of the water

B/A F#

And your feeling so good 'cause you know

F#m E6

That those spies hide out in every corner

A

And they can't touch you no

Badd9

'Cause they're just spies

 

C#m11.... A.... B6/9.. Badd9.. B6/9.. Badd9..

they're just spies

 

LAST CHORD: C#m13

Share this post


Link to post
Share on other sites

maj all of your tabs except the spies one is dead wrong. Also this is Kapones thread so lets leave the tab posting to him

Share this post


Link to post
Share on other sites

Uh in another thread you said that there was the shiver acoustic in this thread. I do not see it.

Share this post


Link to post
Share on other sites
THE SCIENCTIST (ELECTRIC)

 

OK, the tuning is EADEAE with a copo in the first fret

 

0

0

0

0

11B

0

 

0

0

0

9

0

x

 

0

0

0

7

0

x

 

0

11

9

11

11

X

 

 

The last three chords are

 

0

11

9

11

11

X

 

0

0

0

9

0

x

 

0

8

0

7

8

0

 

I haven't got a guitar here now but I'll check those are right

 

Could you help me and tell me how to play this and what the X means. I just kinda started playing guitar.:\

 

And by chance did you post One I Love yet?

Share this post


Link to post
Share on other sites

Create an account or sign in to comment

You need to be a member in order to leave a comment

Create an account

Sign up for a new account in our community. It's easy!

Register a new account

Sign in

Already have an account? Sign in here.

Sign In Now



×
×
  • Create New...