Jump to content
⭐️DISCUSS COLDPLAY'S RUMOURED UPCOMING ALBUM!🪐
Kapone

Kapone's Tabs

Recommended Posts

Can someone post tabs for Strawberry swing. I mean all the guitar riffs johny plays.!

Share this post


Link to post
Share on other sites
WARNING SIGN (CHRIS)

Tuning: EADGBD

Capo: Second

 

Intro (sometimes added, sometimes not)

Hammer your middle finger

0

1

0

2

3

3

 

Verse:

0---0---0---0

6---1---8---3

0---0---0---0

7---2---9---4

8---3--10---5

8---3--10---5

For this, hammer your middle finger on the 2nd and 4th chord. You'll hear it in the song

 

Chorus: And the truth is...

0---0---0---0

1---0---3---3

0---0---4---2

2---2---5---0

3---2---5---0

3---0---3---2

 

and I'm tired...

0---0---0---0

1---0---3---3

2---0---4---2

3---2---5---0

3---2---5---0

1---0---3---2

Hammer the third string on the last chord above and keep that chord going for a bit before going into this bit (only on the second time)

 

The end bit: 'and I crawled...'

0---0---0---0

8---6---1---0

0---0---2---0

9---7---3---2

10--8---3---2

10--8---1---0

 

 

just tell me if i've missed anything out.

XX

 

 

 

2 years and a half later but...

 

this is the BEST tab ever!:dance:

Share this post


Link to post
Share on other sites

Thought it was standard, but after being told otherwise I played along to the live version. The high-e is tuned down to c.

Share this post


Link to post
Share on other sites

that's right, at least for Chris' guitar that I know

Share this post


Link to post
Share on other sites

I wondering in yellow, the d string you tune it down to b or up to b? 'Cause I think no single d string can hold on up to b

Share this post


Link to post
Share on other sites

The tabs for all strawberry swing riffs would be nice^^

 

I would like someone tabbed the god pu a smile upon your face techno version. that would be great! :D

 

[ame=http://www.youtube.com/watch?v=8GIcausAJkE&feature=PlayList&p=1C994D3DE3E9EE07&playnext=1&playnext_from=PL&index=1]YouTube - Coldplay - God Put A Smile Upon Your Face (Live Tokyo 2009) (High Quality video) (HQ)[/ame]

 

Jonnys and chris guitar would be just awsome ;P

Share this post


Link to post
Share on other sites

yes, the techno gpasuyf and the live-version-jonny-guitar for Swallowed in the sea and til kingdome come

 

uh, and the last part of talk (the one with the bend)

 

 

Edit: i got it for swallowed in the sea now by myself.

 

 

I still need:

Til Kingdome Come - Chris' acoustic Guitar & Jonny's live lead Guitar

Chris' & Jonny's guitars for GPASUYF Techno version

last part of Talk for lead guitar (i think the notes are like

[G G Bb-bend up]x2 then [G G bend Bb first, then strike it and release bend to Bb]

thats just what I think)

Share this post


Link to post
Share on other sites
I wondering in yellow, the d string you tune it down to b or up to b? 'Cause I think no single d string can hold on up to b

 

The tuning for Chris' guitar is:

 

eb

B

G

D

A

E

 

Jonny's guitar is standard tuning

Share this post


Link to post
Share on other sites

For GPASUYF Techno version .. ive been trying work out some tabs for it... here it goes:

 

Jonny's Guitar

 

Intro x2 (^= Use your whammy bar to vibrate the notes)

 

e-----------------------------------------------------------

B-----------------------------------------------------------G-----------------------------------------------------------

D-----12^^^^-----------------------15^^^^---------

A-----------------13^^^^16^^^^--------------------

E------------------------------------------------------------

 

e--------------------------------------------------

B--------------------------------------------------

G--------------------------------------------------

D---12^^^^----------------------15^^17^^

A--------------13^^^^15^^^^--------------

E---------------------------------------------------

 

The second time Jonny starts to play the intro Chris comes in with this riff: (repeat it 2 times while the second intro)

 

e-------------------------------------------------------------------------------------------

B-----2--------2--2-------4---------4--4-------5--------5--5------7---7--7---9--9--9

G-------------------------------------------------------------------------------------------

D-------------------------------------------------------------------------------------------

A---2----2--2----------4----4--4-----------5-----5--5---------7-----------------------

E------------------------------------------------------------------------------------------- Remenber to repeat

 

 

 

For the rest of the song i just know Jonny's Guitar

 

Verse:

 

e----------------------------------------------------

B-14/12--------------------------------------------

G---------13--/-16-16/13-- ----------------------

D------------------------------14/17-------14-/11

A-----------------------------------------------------

E-----------------------------------------------------

Where do we go nobody knows...

 

e----------------------------------------------------

B-14/12--------------------------------------------

G---------13--/-16-16/13-- ----------------------

D------------------------------14/17-------16-/11

A-----------------------------------------------------

E-----------------------------------------------------

..I've gotta say im on my way...........down

 

 

Chorus: (Listen carefully for the rythm) Its the same thing that in the original version

 

 

e--16----16-16---------16--16--------16--16----14-14-14-14-14-14

B--12----12-12---------12--12--------12--12----14-14-14-14-14-14

G--13----13-13---------13--13--------13--13----15-15-15-15-15-15

D------------------------------------------------------------------------------ Repeat x4

A-------------------------------------------------------------------------------

E--------------------------------------------------------------------------------

a.. when you work it out im worse than you..

 

Song structure

 

Intro x2

 

Verse x2

 

Intro x1

 

Verse x2

 

Chorus

 

Outrox1(same as intro)

 

I hope you all enjoy playing this awesome version of gpasuyf :D

Share this post


Link to post
Share on other sites

awesome!

can you tell me, what kind of effect he's using? it's kind of smooth and mellow, so un-guitar-ish

 

Like a "singing saw" !!

 

edit:

nah, sorry! chris' guitar is incorrect. and the 1st part of the verse, is it really 14/11 at the end? not 16/11 as well?

he's moving around on the a string about 6-9-8-7. like

G |----8------8------8----11------11-----11---

Db|------0------0-------------0--------0---------

A |--6------6------6----9-------9-------9-------- etc. etc.

 

(i guess that's wrong, but just a try)

 

 

Edit:

sorry, but almost everything is wrong...

 

jonny:

Use whammy:

e|---------------11---14-------------------------14-16

B|-14----12-----------------14----12----11---------- (Riff1)

 

Riff1

Riff1

Verse (normal GPASUYF Riff that is used between the verses)

Riff1

Verse

Chorus (normal GPASUYF Chorus Riff)

Riff1

(turns into Talk...)

 

e|---9-------------------------------

B|-----12---9--------------9-------

G|-9-----------11---9-11----------

D|------------------------------11-- (typical talk riff, though as you see, it's lower, just as it's played live)

 

2nd riff, used as the "last part" of riff one during chorus:

e|------------------------------------

B|-9--------9--9--9--9-------------

G|------------------------11--8-----

D|----11-------------------------9--

 

3rd riff, the one before the first one that comes in the chorus:

e|----------------------------------------------------------------------------------------------------------------------------------

B|-10-10-10-10-10-10-10-10-9-9-9-9-9-9-9-----------------------10-10-10-10-10-10-10-10-9-9-9-12---12-12

G|-9---9---9--9---9--9---9--9---9-9-9-9-9-9-9-(directly riff 1!!)---9--9---9---9--9---9--9---9--9-9-9-9-----9---9

(directly riff 1 again!!)

(you hardly hear it, but he might play even riff 1 just pretty calm)

 

Riff 1 (i used the MTV World Stage version, might be different at other concerts)

tacet during verse/doing some power chords

chorus:

Riff 3 (part1)

Riff 1

Riff 3 (part2)

Riff 1

Riff 3 (part1)

Riff 1

Riff 3 (part2)

Riff 2

 

 

just a try, however

Share this post


Link to post
Share on other sites

by the way, the last Talk riff goes:

 

G|-9--9--11b---11b---(b)11r--11--- etc.

 

b11 = bend on fret 11 about 1/4 tone

(b)11r= pre-bend 11th fret about 1/4 tone and release bend to 11th fret

Share this post


Link to post
Share on other sites

GPASUYF techno version intro riff (revised)

 

I've been watchind closely to Jonnys guitar and i think it sounds better like this

 

B----------------------------------------------17

G--14--13--17--19-----14--13--12--19-----

 

Btw princesanji in the verse im sure it goes 14/11 and then 16/11 and i dont know what effects is johnny using i just know his playing in his fenderjazzmaster

Share this post


Link to post
Share on other sites

If anyone is interested heres the electric part for "A Message"

 

Around 1:45 play this:

 

e---8/9------------8-------- play along with verse

B--------9-------------9-----

G----------10--8--------10-

 

3:08 play this

 

e----------9-9--------------------------9-9-------------------------8-8---------------

B----------------------------------------------------------------------------------------- x2

G--11~--------11-11-11-11-11-11-----10-10-10-10-10-10-----8-8-8-8-8-8-

 

and then until 3:50

 

e------9-9--------------------------9-9------------------------9-9-------------------------8-8---------------

B-----------------------------------------------------------------------------------------------------------------

G----------11-11-11-11-11-11------11-11-11-11-11-11---10-10-10-10-10-10-------8-8-8-8-8-8-

 

last electric guitar part 3:50

 

A--4-4-4-4-4-4-4-4-----------------------------------------------------------------

E-----------------------4-4-4-4-4-4-4-4--2-2-2-2-2-2-2-2--2-2-2-2-2-2-2-2- x2

 

Thats it lads

btw in some parts of the song you may play along the acoustic guitar

Share this post


Link to post
Share on other sites

WOW atenia are you planning to stay around? What you've done so far its downright awesome!! Thank you very much :)...I got a number of song requests so If you can tab them for me I'd be very grateful.

 

Requests:

Bigger Stronger (Safety EP)

Low

Swallowed In the Sea

 

Thankyou.

Share this post


Link to post
Share on other sites

i might help you out with swallowed in the sea.....

chorus (2nd time first):

e|---4-----4----4----2-----2------2----2------2-----2----2-----2-----2 (throughout the chorus)

b|--------0----0----------0------0------------0-----0-----------0-----0

g|-4---4----4----4----4------4------4----4------4-----3----3-----3

 

interlude: powercords on e string: 9 --7--7--2

 

in the end chorus you put the chorus an octave higher, but you don't play the b string open, you just double the lower note.

 

 

however, i'm probably wrong again... but the first riff seems to be correct with the fretted notes (not sure about the open string), at least it looks like what jonny is playing at toronto 06!

Share this post


Link to post
Share on other sites

Wow Thank you so much :) princesanji, the swallowed in the sea tab really makes sense :)

Share this post


Link to post
Share on other sites
atenia[/url] are you planning to stay around? What you've done so far its downright awesome!! Thank you very much :)...I got a number of song requests so If you can tab them for me I'd be very grateful.

 

Requests:

Bigger Stronger (Safety EP)

Low

Swallowed In the Sea

 

Thankyou.

 

Yep iam planning staying around this thread. iam going in vacation soon and ill be back in a week or two in the meanwhile ill try to tab your requested songs ;D

Share this post


Link to post
Share on other sites
Yep iam planning staying around this thread. iam going in vacation soon and ill be back in a week or two in the meanwhile ill try to tab your requested songs ;D

 

Thanks a ton :)

Share this post


Link to post
Share on other sites

Ok... for bigger stronger: this tab is from ear havent figured it all

 

 

e---------------------------------------------- (you can hammer-on instead of sliding

B-------------------------5/7-5/7-5/7-5/7- but this way sounds better to me)

(00:10)...faster car...

 

e-------------------0-------------------------------------------------------

B-----1----------1-------------------------------------5/7-5/7-5/7-5/7-

G--0-----------0------------------------------0---------------------------

..to take me anywhere..

 

00:28 verse riff1

e-------0--------0h1p0--------0--0---0--0---0--0---0

B-----1---1---1---------0------1--1---3--3---5--5---0 (~let ring)

G--0--------0---------------0--(0)(0)------------------

"I was.."

 

00:42(verse riff2)

e----------------0--0-------0--0-----0--0---0---0---

B----------------3--3-------0--0-----1--1---2---2---5/7-5/7-5/7-5/7

I wanna be bigger, stronger, drive a faster car..

 

Verse riff3

e-------0--------0h1p0--------0--0---0--0---0--0---0--0--0--0--0--0--0--0--0--0-

B-----1---1---1---------0------1--1---3--3---5--5---0--0--3--3--0--0--1--1--2--2----5/7-5/7-5/7-5/7

G--0--------0---------------0--(0)(0)------------------------------------------------

to take me anywhere...

 

"I was settle for nothing "(play the verse riff1)

 

Chorus - use tremolo picking

 

B---------------------7-7-7-7-7-7-7-9-9-9-9-9-9-9-9-10-10-10-10-10

I think i wanna change my head.................change...........

 

B-9-9-9-9-9-9-9-9-9-7-7-7-7-7-7-9-9-9-9-9-9-9-9-11-11-11-11-11

I think i wanna change my head.................change...........

 

B---9-9-9-9-9-9-9-9-9--7-7-7-7-7-7-7-9-9-9-9-9-9-9-10-10-10-10-10-10-9-9-9-9-9-9-9-9-7-7-7-7-7-7-6-6-6-6-6-6-6-

I think i wanna change my head.................my head..................change

 

Solo1 (tremolo time xD)

B--5-5-5-5-5-5-5-3-3-3-3-3-3-3-3-8-8-8-8-8-8-8-6-6-6-6-6-6-6-|

 

B-5-5-5-5-5-5-5-3-3-3-3-3-3-3-3-8-8-8-8-8-8-8-10-10-10-10-10|use tremolo picking (go crazy)

 

B-13-13-12-13-13-13-13-13-10-10-9-10-10-10-10-10-10-8-8-8-8-8-7-7-7-7-7-7-7-7-5-5-5-5-5-5-5

 

B-3-3-3-3-3-3-3-2-2-2-2-2-2-3-3-3-3-3-3-3-3-5-5-5-5-5-5-5-5

 

verse riff2

verse riff3

verse riff1

Chorus

 

e--------------

B-7-5-- (x16)-5/12

G-----5--------

 

e----------------------

B-12-10-----(x16)--

G---------10---------

 

use Tremolo picking ..

e- (*-stop with tremolo)

B-12-10-10-10-12-12-12-12-12-12-14-14-14-14-16-16-16-16-18-18-18-18-18-(*)-16/0

 

from this on i dont know how to play (YET)

 

Enjoy the tabs mates (i may commited a lot of mistakes but give me a break i finished tabbing this 2hours after i saw the request)

Share this post


Link to post
Share on other sites
i might help you out with swallowed in the sea.....

chorus (2nd time first):

e|---4-----4----4----2-----2------2----2------2-----2----2-----2-----2 (throughout the chorus)

b|--------0----0----------0------0------------0-----0-----------0-----0

g|-4---4----4----4----4------4------4----4------4-----3----3-----3

 

interlude: powercords on e string: 9 --7--7--2

 

in the end chorus you put the chorus an octave higher, but you don't play the b string open, you just double the lower note.

 

 

however, i'm probably wrong again... but the first riff seems to be correct with the fretted notes (not sure about the open string), at least it looks like what jonny is playing at toronto 06!

 

For Swallowed in the sea:

 

the tabs sugested by princesanji sound great^^ Thanks!

 

but the interlude i think it goes like this:

 

e---------------------------------------------------|

B---------------------------------------------------|

G---------------------------------------------------|

D-11-11-11--6--2-2-2--6--9-9-9--6--4-4-4-|

A-11-11-11--6--2-2-2--6--9-9-9--6--4-4-4-|

E--9--9---9---4--0-0-0--4--7-7-7--4--2-2-2-|

Share this post


Link to post
Share on other sites

For Low

 

Intro (same as chorus)

 

Jonnys Guitar

G-7b-7b-7b-7b-7b-7b-7b-7r----7-7-7-7-7-7-7-7-7-7-7 (listen to the song closely and you know when to use bend)

 

Chris Guitar(im not sure this is correct i was playing another song - go to sleep by radiohead- when i realized i was playing a chord from chris guitar on low and then i watched several live performances)

 

here it is the chords youll get the rythm, this is only for verse, im almost finished with chorus

D-------------------------------------2---

A---10-----9----5-----7-----5------2--

E---12----10----7-----8-----5---------

 

During you can do this (how it was mentioned before in this thread):

 

e-12---------12

B------------------ play it softly

G-----12--------12

D---------11--------11

 

Before the chorus play this chord:

 

0

0

0

2

2

0

 

Chorus (same as the intro, once again listen closely to know when to bend the note)

 

Interlude:

 

e--12-12---12-12-- x4

B--10-12---12-12--

 

e--8-8---8--8---8-8---10-10---

B--8-7---8-10--8-10--10-12---

 

e--12-12---12-12-- x2

B--10-12---12-12--

 

Before the 2nd chorus play this again:

 

e--8-8---8--8---8-8---10-10---

B--8-7---8-10--8-10--10-12---

 

e--12-12---12-12-- x2

B--10-12---12-12--

 

Chorus

 

Then jonny plays something like this:

e--3----------------------0-0---------3-3-------0----

B--0----------------------2-2---------3-3-------2----

G--0----------------------0-0---------0-0-------0-----

D--0----------------------2-2---------2-0-------2------

A--x----------------------0-2---------2-2--------x--------

E--3----------------------3-3---------3-3-------3------

...Cos i feel low

 

But I feel low

(strum this chords)

 

3

3

0

0

2

3

 

0

1

2

0

3

0

 

0

3

0

2

0

0

 

Solo

 

e------------------------------------------------------------------------------------3-2-0---------

B--------------------------------------------------------------------------------------------3-0-3

G-------4--4--4----------4-4/6-0------4--4--4-------4-4/6-0-------4-4-4/6----------------

D---------------------------------------------------------------------------------------------------

A---------------------------------------------------------------------------------------------------

E--3-3-------------0-0-------------0-3------------0-0------------0-3--------------------------

 

e------0---

B----3---3-

G----------- x4

D-----------

A--0--------

E------------

 

e----------------------------------------------------------------------------------

B-----------------------------------------------------------------------------------

G-------4--4--4----------4-4/6-0------4--4--4-------4-4/6-0-------4-4-4/6----------------

D---------------------------------------------------------------------------------------------------

A---------------------------------------------------------------------------------------------------

E--3-3-------------0-0-------------0-3------------0-0------------0-3--------------------------

 

Strum this chord:

 

0

1

2

0

3

0

 

 

e------0---

B----3---3-

G----------- x4

D-----------

A--0--------

E------------

 

It ends with this chord

 

3

3

0

0

x

3

 

Hope you enjoy the tab mates, low is an awesome song

Share this post


Link to post
Share on other sites

Create an account or sign in to comment

You need to be a member in order to leave a comment

Create an account

Sign up for a new account in our community. It's easy!

Register a new account

Sign in

Already have an account? Sign in here.

Sign In Now



×
×
  • Create New...